» » »

Babies Tabs (ver.1)

Artists:  A B C D E F G H I J K L M N O P Q R S T U V W X Y Z # 

Babies Tabs (ver.1)

Pulp
Rating:
5/5 (8 votes)

Hard to play? Try these video lessons and learn fast.
                Released: 1992
Tuning: Standard

A brilliant song by British band Pulp, I was surprised to see no tabs for the lead parts 
the song so here they are!

Intro:
e-----------------------------------------------------------------|
B-----------------------------------------------------------------|
G-----6----6-----6-----6-----6-------4-----4-----4-----4-----4----|
D-7-7---7-7---7-7---7-7---7-7---7-5-5---5-5---5-5---5-5---5-5---5-|
A-----------------------------------------------------------------|
E-----------------------------------------------------------------|

Verse
e----------------------------------------------------------------|
B-8-9-10~~~-----10-9-8~~~----------------------------------------|
G----------------------------------------------------------------|
D----------------------------------------------------------------|
A----------------------------------------------------------------|
E----------------------------------------------------------------|

e-----------------------------------------------------------------|
B-----------------------------------------------------------------|
G-----------------------------------------------------------------|
D-----------------------------------------------------------------|
A-----5-----5-----------4------4----------------------------------|
E-5h7---5h7---7p5---5-5---5------5---5-5-4-3-3-5-3----5-3---3-3-4-|

Chorus
e-----------------|    |-----------------|    |-2-----2----------|
B-----------------|    |-----------------|    |-2---2---2-0------|
G---12--12--12--12| x2 |---14--14--14--14| x6 |-2---2-----0------|
D-12--12--12--12--|    |-12--12--12--12--|    |-0---0-----0------|
A-----------------|    |-----------------|    |-----------2------|
E-----------------|    |-----------------|    |-----------3------|

Solo
e-----------------------------|
B-----------------------------|
G-12-11---9---12-11-------9---|
D-------12-12-------12--12-12-|
A-----------------------------|
E-----------------------------|


And that's it! Enjoy!

@ndy
            
Hard to play? Try these video lessons and learn fast. | Correct




comments powered by Disqus
↑ Back to top | Tablatures and chords are parodies/interpretations of the original songs. You may use it for private study, scholarship, research or language learning purposes only