» » »

She ***Ing Hates Me Bass tabs (ver.1)

Artists:  A B C D E F G H I J K L M N O P Q R S T U V W X Y Z # 

She ***Ing Hates Me Bass tabs (ver.1)

Puddle Of Mudd
Rating:
0/5 (0 votes)

Hard to play? Try these video lessons and learn fast.
                G|-----------------------------------|
D|---------2------------4------------|
A|---2---0-------4-0-22--------------|
E|-0---0-----0-2---------------------|

G|-----------------------------------|
D|-----------------------------------|
A|-----0000----2222------------------|
E|-0000----2222----------------------|

G|-----------------------------------|
D|---------2------------4------------|
A|---2---0-------4-0-22--------------|
E|-0---0-----0-2---------------------|
 
            
Hard to play? Try these video lessons and learn fast. | Correct




comments powered by Disqus
↑ Back to top | Tablatures and chords are parodies/interpretations of the original songs. You may use it for private study, scholarship, research or language learning purposes only