» » »

Hates Me Bass tabs (ver.1)

Artists:  A B C D E F G H I J K L M N O P Q R S T U V W X Y Z # 

Hates Me Bass tabs (ver.1)

Puddle Of Mudd
Rating:
0/5 (0 votes)

Hard to play? Try these video lessons and learn fast.
                She hates me
Puddle of mudd

Standard tuning

verse

G|-------------------------------------------|
D|--------------2------------------4---------|
A|-----2-----0----0-------4--2-2-------------|
E|--0---0------------2-2---------------------|

Chorus

G|-----------------------------------------------------------------|
D|-----------------------------------------------------------------|
A|---------1-1-1----------3-3-3-0----------1-1-1---------3-3-3-0---|
E|-1-1-1----------3-3-3------------1-1-1----------3-3-3------------|


G|-----------------------------------------------------------------|
D|-----------------------------------------------------------------|
A|---------1-1-0----------3-3-3-0----------1-1-0----2----3-3-3-0---|
E|-1-1-1----------3-3-3------------1-1-1----------3----3-----------|

Verse

G|-------------------------------------------|
D|--------------2------------------4---------|
A|-----2-----0----0-------4--2-2-------------|
E|--0---0------------2-2---------------------|


Pre chorus

G|------------------------------------------------------------------------|
D|------------------------------------------------------------------------|
A|---------1-1-1----------3-3-3-0----------1-1-1---------3-3-3-0----------|
E|-1-1-1----------3-3-3------------1-1-1----------3-3-3-------------------|     x2
-


Chorus

G|-----------------------------------------------------------------
D|-----------------------------------------------------------------
A|---------1-1-1----------3-3-3-0----------1-1-1---------3-3-3-0---
E|-1-1-1----------3-3-3------------1-1-1----------3-3-3------------


G|-------------------------------------------------------------------------|
D|-------------------------------------------------------------------------|
A|---------1-1-0----------3-3-3-0----------1-1-0----2----3-3-3-0-----------|
E|-1-1-1----------3-3-3------------1-1-1----------3----3-------------------|

Guitar solo (same as pre chorus)

G|------------------------------------------------------------------------|
D|------------------------------------------------------------------------|
A|---------1-1-1----------3-3-3-0----------1-1-1---------3-3-3-0----------|
E|-1-1-1----------3-3-3------------1-1-1----------3-3-3-------------------|     x2


Verse

G|-------------------------------------------|
D|--------------2------------------4---------|
A|-----2-----0----0-------4--2-2-------------|
E|--0---0------------2-2---------------------|



Chorus

G|-----------------------------------------------------------------
D|-----------------------------------------------------------------
A|---------1-1-1----------3-3-3-0----------1-1-1---------3-3-3-0---
E|-1-1-1----------3-3-3------------1-1-1----------3-3-3------------


G|------------------------------------------------------------------|
D|------------------------------------------------------------------|
A|---------1-1-0----------3-3-3-0----------1-1-0----2----3-3-3-0----|
E|-1-1-1----------3-3-3------------1-1-1----------3----3------------|

Outro


G|-----------------------------------------------------------------
D|-----------------------------------------------------------------
A|---------1-1-1----------3-3-3-0----------1-1-1---------3-3-3-0---
E|-1-1-1----------3-3-3------------1-1-1----------3-3-3------------

G|-----------------------------------------------------------------------------------
D|-----------------------------------------------------------------------------------
A|---------1-1-1----------3-3-3-0----------1-1-1---------3-3-3-0---------------------
E|-1-1-1----------3-3-3------------1-1-1----------3-3-3-----------1---1-----------1--
            
Hard to play? Try these video lessons and learn fast. | Correct




comments powered by Disqus
↑ Back to top | Tablatures and chords are parodies/interpretations of the original songs. You may use it for private study, scholarship, research or language learning purposes only