» » »

Puddle Of Mudd, Drift And Die Bass tabs (ver.1)

Artists:  A B C D E F G H I J K L M N O P Q R S T U V W X Y Z # 

Drift And Die Bass tabs (ver.1)

Puddle Of Mudd Tabs
 Rating:
4/5 (4 votes)
Drift And Die lessons Tabs too difficult? Try these video lessons and learn fast
1
                Puddle of Mudd
"Drift and Die"


Intro

REST x 2

[Play softly]

Gb|---||-----------------|-----------------|-----------------|-----------------||
Db|---||-----------------|-----------------|-----------------|-----------------||
Ab|---||-5---------------|-5---------------|-0-2-3-3--2------|-0-2-3\5-2-------||
Db|-0-||-----------------|-----------------|-----------------|---------------0-||

Gb|-----------------|-----------------|-----------------|-----------------||
Db|-----------------|-----------------|-----------------|-----------------||
Ab|-5---------------|-5---------------|-0-2-3-3--2------|-0-2-3\5-2-------||
Db|-----------------|-----------------|-----------------|--------------10\||

First Chorus

22
Gb|-----------------|-----------------|-----------------|-----------------||\  / 2  2
Db|-----------------|-----------------|-----------------|-----------------|| \/    2
Ab|-5--------3-2----|-----------2h3-33|-5-------3--2----|-----------2h3-33|| /\   2
Db|-----------------|-3---3-3-3-------|-----------------|-3---3-3-3-------||/  \ 2222

Verse

Gb|-----------------|-----------------|-----------------|-----------------||
Db|-----------------|-----------------|-----------------|-----------------||
Ab|-0-0--5--5-5--5-5|-0-0--5--5-5--5-5|-0-2-3-3--2--2-2-|-0-2-3\5-2---2-2-||
Db|-----------------|-----------------|-----------------|-----------------||


22
Gb|-----------------|-----------------|-----------------|-----------------||\  / 2  2
Db|-----------------|-----------------|-----------------|-----------------|| \/    2
Ab|-5--------3-2----|-----------2h3-33|-5-------3--2----|-----------2h3-33|| /\   2
Db|-----------------|-3---3-3-3-------|-----------------|-3---3-3-3-------||/  \ 2222


Chorus [Louder]

22
Gb|-----------------|-----------------|-----------------|-----------------||\  / 2  2
Db|-----------------|-----------------|-----------------|-----------------|| \/    2
Ab|-5---5-5--3-2----|-----------2h3-33|-5--5-5--3--2----|-----------2h3-33|| /\   2
Db|-----------------|-3---3-3-3-------|-----------------|-3---3-3-3-------||/  \ 2222

Interlude

Gb|-----------------|-----------------|-----------------|-----------------||
Db|-----------------|-----------------|-----------------|-----------------||
Ab|-5--5-3-5--------|---3---------3---|-5-3---5-553-2---|-----------------||
Db|-------------3-3h|>5-----3-3h5-----|-----------------|-3-3-3-3-3/5-5-5-||

Gb|-----------------|-----------------|-----------------|-----------------||
Db|-----------------|-----------------|-----------------|-----------------||
Ab|-5--5-3-5--------|---3---------3---|-5-3---5-553-2---|-----------------||
Db|-------------3-3h|>5-----3-3h5-----|-----------------|-3---3-3-3-3-3-3-||

REST x 2

Final Chorus
                                         {         1, 2, 3          }
4  4
Gb|-----------------|-----------------|-----------------|-----------------||\  / 4  4
Db|-----------------|-----------------|-----------------|-----------------|| \/  4444
Ab|-5---5-5--3-2----|-----------2h3-3-|-5--5-5--3--2----|-----------2h3-3-|| /\     4
Db|-----------------|-3---3-3-3-------|-----------------|-3---3-3-3-------||/  \    4

END:   {   4   }
Gb|-----------------|
Db|-----------------|
Ab|----5---3--2-----|
Db|---------------3~|
            
Submit corrections

comments powered by Disqus
↑ Back to top | Puddle Of Mudd Bass for Drift And Die. Lyrics for acoustic guitar and electric guitar. 1 Tablatures and chords are parodies/interpretations of the original songs. You may use it for private study, scholarship, research or language learning purposes only