» » »

Puddle Of Mudd, Bottom Bass tabs (ver.1)

Artists:  A B C D E F G H I J K L M N O P Q R S T U V W X Y Z # 

Bottom Bass tabs (ver.1)

Puddle Of Mudd Tabs
Rating:
0/5 (0 votes)
Bottom lessons Tabs too difficult? Try these video lessons and learn fast
                Band- Puddle Of Mudd
Song- Bottom

Intro/ Verse

Gb---------------------------------------|
Db----------------------------------3-3--|
Ab----3h5-55-5-3h5-55--5-3h5-55--5-------|
Db---------------------------------------|

Gb---------------------------------------|
Db---------------------------------1-1---|
Ab----3h5-55-5-3h5-55--5-3h5-55--5-------|
Db---------------------------------------|

Chorus

Gb-------------------------------------|
Db-------------------------------------|
Ab---3--33----66---6 --5--5-55---------|
Db-------------------------------------|

Gb-------------------------------------|
Db-------------------------------------|
Ab---3--33----66---6 --5--5-55---------|
Db-------------------------------------|

Gb--------------------------------------|
Db--------------------------------------|
Ab---3--33----66---6---1-11------4------|
Db--------------------------------------|

Gb-----------------------------------------------|
Db-----------------------------------------------|
Ab---3--33----66---6----------5-----------5------|
Db---------------------00-00-----00-00------00---|

Bridge
Gb--------------------------------------|
Db--------------------------------------|
Ab-------------------333333-------------|
Db---00000000000000-----------333333----|

Standard, on a 5 string bass

Intro, Verse

G------------------------------|
D-------------------------2-2--|
A---2h4-44-4-2h4-4-2h4-4-------|
E------------------------------|
B------------------------------|

G----------------------------|
D------------------------0-0-|
A---2h4-44-4-2h4-4-2h4-4-----|
E----------------------------|
B----------------------------|

Chorus

G--------------------------------------|
D--------------------------------------|
A--2--22-----5---55----4--44-----------|
E--------------------------------------|
B--------------------------------------|

G--------------------------------------|
D--------------------------------------|
A--2--22-----5---55----4--44-----------|
E--------------------------------------|
B--------------------------------------|

G--------------------------------------|
D--------------------------------------|
A--2--22-----5---55----0--00--3--------|
E--------------------------------------|
B--------------------------------------|

G-------------------------------------------|
D-------------------------------------------|
A--2--22-----5---55--------4------4---------|
E-------------------------------------------|
B--------------------22-22-----22---22------|

Bridge

G-------------------------------------|
D-------------------------------------|
A------------------111111-------------|
E----------------------------000000---|
B----222222222222---------------------|
            
Submit corrections

comments powered by Disqus
↑ Back to top | Puddle Of Mudd Bass for Bottom. Lyrics for acoustic guitar and electric guitar. Tablatures and chords are parodies/interpretations of the original songs. You may use it for private study, scholarship, research or language learning purposes only