» » »

One Armed Man Tabs (ver.2)

Artists:  A B C D E F G H I J K L M N O P Q R S T U V W X Y Z # 

One Armed Man Tabs (ver.2)

Project 86
Rating:
0/5 (0 votes)

Hard to play? Try these video lessons and learn fast.
                
     TUNING: drop d (D-A-D-G-B-E)

     INTRO AND VERSE:

    E|---------------------------------------------------------------|
    B|---------------------------------------------------------------|
    G|-----7-----7-/10-10-10-10/12-----7----7-/10-10-10-10/5-5-5-----|
    D|--0-----0----------------------0----0--------------------------|
    A|--0--5--0--5-/8--8--8--8-/10---0-5--0-5-/8--8--8--8-/3-3-3-----|
    D|--0-----0----------------------0----0--------------------------|

     CHORUS:

    E|------------------------------------|
    B|------------------------------------|
    G|-------------------5-5/7--5/7--5/7--|
    D|--8-8-8-8-8/10-10-------------------|
    A|--8-8-8-8-8/10-10--3-3/5--3/5--3/5--|
    D|--8-8-8-8-8/10-10-------------------|

     INTERLEUD
     4X
    E|------------------------------------------|
    B|------------------------------------------|
    G|------------------------------------5--7/-|
    D|--0-0-0-0h3-0h3-0h3-0-0-0-0-0--0-3--------|
    A|--0-0-0-0h3-0h3-0h3-0-0-0-0-0--0-3--3--5/-|
    D|--0-0-0-0h3-0h3-0h3-0-0-0-0-0--0-3--------|
PM                        . . . . 
    2X
    E|-------------------|
    B|-------------------|
    G|--------5----------|
    D|--0--3--5--5--5-3--|
    A|--0--3--3--5--5-3--|
    D|--0--3-----5--5-3--|

     OUTRO:

    E|--------------------|
    B|--------------------|
    G|--7-7---------------|
    D|--7-7--3h5-5/6\(5)--|
    A|--5-5--3h5-5/6\(5)--|
    D|-------3h5-5/6\(5)--|
            
Hard to play? Try these video lessons and learn fast. | Correct




comments powered by Disqus
↑ Back to top | Tablatures and chords are parodies/interpretations of the original songs. You may use it for private study, scholarship, research or language learning purposes only