» » »

Project 86, One Armed Man Bass tabs (ver.1)

Artists:  A B C D E F G H I J K L M N O P Q R S T U V W X Y Z # 

One Armed Man Bass tabs (ver.1)

Project 86 Tabs
 Rating:
4.2/5 (5 votes)
One Armed Man lessons Tabs too difficult? Try these video lessons and learn fast
                
Verse

G|-------------------------------
D|--------333-555--------333-----
A|-05-0-5---------05-0-5-----333-
E|-------------------------------

Chorus

G|-----------------------------------
D|-----------------------------------
A|-1-1-1-1-3-3-3-3-00-5-35-35-35-3-55
E|-----------------------------------

Bridge
(play on, play on in these wicked days...)
G|------------------
D|-----3-3-------3--
A|-5-5-----55555---3
E|------------------

(zombies staring...slow)
G|---------5---------
D|-----3-------5-5-3-
A|-5-----------------
E|-------------------


G|-----------------
D|-00-3453-00-3453-
A|-----------------
E|-----------------

This is how i play it, but i think i may just be following the guitar so you might want to view some other tabs to get a better idea. Also, there is alot of repeating in this song.
I started playing in drop-D.  I go down (instead of 05) to the d-string and play A-to D for the second part, but i dont think that's what Steve plays.
            
Submit corrections

comments powered by Disqus
↑ Back to top | Project 86 Bass for One Armed Man. Lyrics for acoustic guitar and electric guitar. Tablatures and chords are parodies/interpretations of the original songs. You may use it for private study, scholarship, research or language learning purposes only