» » »

Project 86, Me Against Me Tabs (ver.2)

Artists:  A B C D E F G H I J K L M N O P Q R S T U V W X Y Z # 

Me Against Me Tabs (ver.2)

Project 86 Tabs
 Rating:
4.2/5 (5 votes)
Me Against Me lessons Tabs too difficult? Try these video lessons and learn fast
1
                
Project 86 - Me Against Me

I looked all over the net for a tab by Project 86.
Since I could not find one, I decided to tab out one myself.
This is probably the best hardcore band ever!
It´s as close to perfect you could come!

Tuning: D A D G B E (Drop-D)

Intro: Starts out with the base, the guitar kicks in after 3 sec.

----------
----------
----------
--0-2-3---     X3
--0-2-3---
--0-2-3---

After the tird time they play a harmony on the 7th fret.
   h
--7--
--7--
--7--
--7--
--7--
--7--

----------------------------------------------------------------
----------------------------7-----------------------------------
--------------7-7-7-7---------------------7-7-7-7-------7-------
--0-2-3--2-2-----------2-2--5--2-3--2-2------------2-2-----2-3--
--0-2-3--2-2--5-5-5-5--2-2-----2-3--2-2---5-5-5-5--2-2--5--2-3--
--0-2-3--2-2-----------2-2-----2-3--2-2------------2-2-----2-3--

Right before he starts to sing theres a harmony on the 5th fret.
It´s also used during the verse.
   h
--5--
--5--
--5--
--5--
--5--
--5--

While he is singing they use a wah-wah pedal while muting all strings.

--X--
--X--
--X--
--X--
--X--
--X--

Pre-chorus:

------------------------------------------------------
------------------------------------------------------
------------------------------------------------------
--0-2-3-3/5-5-5-5-0-0-0-0-2-2-2-2-2--3/5-5-5-5-0-0-0--
--0-2-3-3/5-5-5-5-0-0-0-0-2-2-2-2-2--3/5-5-5-5-0-0-0--
--0-2-3-3/5-5-5-5-0-0-0-0-2-2-2-2-2--3/5-5-5-5-0-0-0--

-----------------------------------------------
-----------------------------------------------
-9-9-9-9--9-9-9-9------------------------------
--------------------3/5-5-5-5-0-0-0-0-2-2-2-2--
-7-7-7-7--7-7-7-7---3/5-5-5-5-0-0-0-0-2-2-2-2--
--------------------3/5-5-5-5-0-0-0-0-2-2-2-2--

--------------------
--------------------
--------------------
-3/5-5-5-5-0-0-0-0--
-3/5-5-5-5-0-0-0-0--
-3/5-5-5-5-0-0-0-0--

Chorus:
--------------------------------------------------------------
---------------------------7----------------------------------
-------------7-7-7-7---------------------7-7-7-7-------7------
-0-2-3--2-2-----------2-2--5--2-3--2-2------------2-2-----2-3-
-0-2-3--2-2--5-5-5-5--2-2-----2-3--2-2---5-5-5-5--2-2--5--2-3-
-0-2-3--2-2-----------2-2-----2-3--2-2------------2-2-----2-3-

After the chorus, just play around with muted strings around the 5th
and 7th fret.

Then this little lick kicks in:

--------------------------
--------------------------
--9999--9999--9999--7777--
--------------------------
--7777--7777--7777--5555--
--------------------------

That´s all you need to know. I know this is "almost" exact how they
play thissong, since I´ve seen it live. If you have any questions or
            
Submit corrections

comments powered by Disqus
↑ Back to top | Project 86 Tabs for Me Against Me. Lyrics for acoustic guitar and electric guitar. 1 Tablatures and chords are parodies/interpretations of the original songs. You may use it for private study, scholarship, research or language learning purposes only