» » »

Project 86, Me Against Me Tabs (ver.3)

Artists:  A B C D E F G H I J K L M N O P Q R S T U V W X Y Z # 

Me Against Me Tabs (ver.3)

Project 86 Tabs
 Rating:
4/5 (4 votes)
Me Against Me lessons Tabs too difficult? Try these video lessons and learn fast
1
                
 
TUNING: drop d (D-A-D-G-B-E)


     INTRO:

    ----------
    ----------
    ----------
    --0-2-3---    
    --0-2-3---
    --0-2-3---

    
   (Harmonics)
   
    ----------
    -----(4)--
    -----(4)--
    -----(4)--
    -----(4)--
    ----------
    

    ----------------------------------------------------------------
    ----------------------------------------------------------------
    --------------7-7-7-7-------7-------------7-7-7-7-------7-------
    --0-2-3--2-2-----------2-2-----0-3--2-2------------2-2-----0-3--
    --0-2-3--2-2--5-5-5-5--2-2--5--0-3--2-2---5-5-5-5--2-2--5--0-3--
    --0-2-3--2-2-----------2-2-----0-3--2-2------------2-2-----0-3--

    Verse 
    
    Various muting with a wah-pedal.....
 
    --x-- 
    --x--
    --x--
    --x--
    --x--
    --x--

     PRE-CHORUS:

    ------------------------------------------------------
    ------------------------------------------------------
    ------------------------------------------------------
    --0-3-2--5-5-5-5-0-0-0-0-2-2-2-2-2--5-5-5-5-0-0-0-0---
    --0-3-2--5-5-5-5-0-0-0-0-2-2-2-2-2--5-5-5-5-0-0-0-0---
    --0-3-2--5-5-5-5-0-0-0-0-2-2-2-2-2--5-5-5-5-0-0-0-0---

    ------------------------------------------------------
    -5-5-5-5----------------------------------------------
    -4-4-4-4----------------------------------------------
    -2-2-2-2--5-5-5-5-0-0-0-0-2-2-2-2--5-5-5-5-0-0-0-0----
    -2-2-2-2--5-5-5-5-0-0-0-0-2-2-2-2--5-5-5-5-0-0-0-0----
    -2-2-2-2--5-5-5-5-0-0-0-0-2-2-2-2--5-5-5-5-0-0-0-0----

   

     CHORUS:

    --------------------------------------------------------------
    --------------------------------------------------------------
    -------------7-7-7-7-------7-------------7-7-7-7-------7------
    -0-3-2--2-2-----------2-2-----0-3--2-2------------2-2-----0-3-
    -0-3-2--2-2--5-5-5-5--2-2--5--0-3--2-2---5-5-5-5--2-2--5--0-3-
    -0-3-2--2-2-----------2-2-----0-3--2-2------------2-2-----0-3-

     
    Part right before it kicks back in.... 
    
    -------------------------------------------- 
    --5-5-5-5xx5-5-5-5xx5-5-5-5xx6-6-6-6-6-6----
    --4-4-4-4xx4-4-4-4xx4-4-4-4xx5-5-5-5-5-5----
    --------------------------------------------
    --------------------------------------------
    --------------------------------------------
            
Submit corrections

comments powered by Disqus
↑ Back to top | Project 86 Tabs for Me Against Me. Lyrics for acoustic guitar and electric guitar. 1 Tablatures and chords are parodies/interpretations of the original songs. You may use it for private study, scholarship, research or language learning purposes only