» » »

Centuries Of Sin Tabs (ver.1)

Artists:  A B C D E F G H I J K L M N O P Q R S T U V W X Y Z # 

Centuries Of Sin Tabs (ver.1)

Probot
Rating:
5/5 (2 votes)

Hard to play? Try these video lessons and learn fast.
                OK this isnt that good but its a start right?

Drop C tunning

i havent shown the timing so you can work that out ya selfs;)


 Intro       
D-----------------------------------------
A-----------------------------------------
F-----------------------------------------
C-----------------------------------------
G----------33--------55-------------------
C---020202----020202----020202--66--------

VERSE IS THE INTRO PALM MUTED

CHORUS
D-----------------------------------------------------------
A-----------------------------------------------------------
F-----------------------------------------------------------
C---0-22-0-22-0-22-0-22---17--------------------------------
G---0-22-0-22-0-22-0-22---17--------------------------------
C---0-22-0-22-0-22-0-22---17--------------------------------
                          ^'OPEN THE GATES AND YELL'
                            

D-----------------------------------------------------------
A-----------------------------------------------------------
F-----------------------------------------------------------
C---0-22-0-22-0-22-0-22---15-13-----------------------------
G---0-22-0-22-0-22-0-22---15-13-----------------------------
C---0-22-0-22-0-22-0-22---15-13-----------------------------


D-----------------------------------------------------------
A-----------------------------------------------------------
F-----------------------------------------------------------
C---0-22-0-22-0-22-0-22---17--------------------------------
G---0-22-0-22-0-22-0-22---17--------------------------------
C---0-22-0-22-0-22-0-22---17--------------------------------


D-----------------------------------------------------------
A-----------------------------------------------------------
F-----------------------------------------------------------
C---0-22-0-22-0-22-0-22---15-13-----------------------------
G---0-22-0-22-0-22-0-22---15-13-----------------------------
C---0-22-0-22-0-22-0-22---15-13-----------------------------

BRIDGE

D-----------------------------------------------------------
A-----------------------------------------------------------
F-----------------------------------------------------------
C--3-5-5-------------------------0-2------------------------
G--3-5-5-DO THAT FOR A BIT THEN--0-2---FOR A BIT------------
C--3-5-5-------------------------0-2------------------------
            
Hard to play? Try these video lessons and learn fast. | Correct




comments powered by Disqus
↑ Back to top | Tablatures and chords are parodies/interpretations of the original songs. You may use it for private study, scholarship, research or language learning purposes only