» » »

Probot, Centuries Of Sin Tabs (ver.3)

Artists:  A B C D E F G H I J K L M N O P Q R S T U V W X Y Z # 

Centuries Of Sin Tabs (ver.3)

Probot Tabs
 Rating:
4/5 (4 votes)
Centuries Of Sin lessons Tabs too difficult? Try these video lessons and learn fast
1
                Probot - Centuries of Sin
feat. Cronos


Tuning: Dropped C/G (CGDGBE)

Intro riff

E|----------------|----------------|----------------|----------------|
B|----------------|----------------|----------------|----------------|
G|----------------|----------------|----------------|----------------|
D|----------------|----------------|----------------|----------------|
G|------------1---|------------3---|------------1---|----------------|
C|0-2-2-2-0-2---2-|0-2-0-2-0-2---2-|0-2-2-2-0-2---2-|0-2-0-2-0-2-6-5-|


Verse
[palm muting]
(4x)
E|----------------|----------------|----------------|----------------|
B|----------------|----------------|----------------|----------------|
G|----------------|----------------|----------------|----------------|
D|------------1---|------------3---|------------1---|----------------|
G|0-2-2-2-0-2-1-2-|0-2-0-2-0-2-3-2-|0-2-2-2-0-2-1-2-|0-2-0-2-0-2-6-5-|
C|0-2-2-2-0-2---2-|0-2-0-2-0-2---2-|0-2-2-2-0-2---2-|0-2-0-2-0-2-6-5-|


Chorus
(entire section 2x)
E|----------------|----------------|----------------|----------------|
B|----------------|----------------|----------------|----------------|
G|----------------|----------------|----------------|----------------|
D|----------------|----------------|3---------------|3---------------|
G|----------------|----------------|1---------------|0---------------|
C|0-2---2-0-2---2-|0-2---2-0-2-0---|----------------|----------------|

E|----------------|----------------|----------------|----------------|
B|----------------|----------------|----------------|----------------|
G|----------------|----------------|----------------|----------------|
D|----------------|----------------|----------------|----------------|
G|----------------|----------------|3---------------|----------------|
C|0-2---2-0-2---2-|0-2---2-0-2-0---|3---------------|0-1-1-1-1-1-1---|


Interlude before 2nd verse:

E|----------------|----------------|----------------|----------------|
B|----------------|----------------|----------------|----------------|
G|----------------|----------------|----------------|----------------|
D|----------------|----------------|----------------|----------------|
G|------------1---|------------3---|------------1---|----------------|
C|0-2-0-2-0-2---2-|0-2-0-2-0-2---2-|0-2-0-2-0-2---2-|0-2-0-2-0-2-6-5-|


Interlude after second chorus:

E|----------------|
B|----------------|
G|----------------|
D|----------------|
G|2---------------|
C|2---------------|

(2x)
E|----------------|----------------|----------------|----------------|
B|----------------|----------------|----------------|----------------|
G|----------------|----------------|----------------|----------------|
D|----------------|----------------|----------------|----------------|
G|----------------|1---3-----------|----------------|1---3-----------|
C|0-2-2-2-0-2-2-2-|--2---2-0-2-3-2-|0-2-2-2-0-2-2-2-|--2---2-0-2-6-5-|


"Expressionless faces (...)" part:
(2x)
E|----------------|----------------|----------------|----------------|
B|----------------|----------------|----------------|----------------|
G|----------------|----------------|----------------|----------------|
D|----------------|----------------|----------------|----------------|
G|----------------|3--0------------|----------------|3--0------------|
C|2--4--4-2--4--4-|------4-2--4--4-|2--4--4-2--4--4-|------4-2--4--4-|

(2x)
E|----------------|----------------|----------------|----------------|
B|----------------|----------------|----------------|----------------|
G|----------------|----------------|----------------|----------------|
D|----------------|----------------|----------------|----------------|
G|----------------|1---------------|----------------|1---------------|
C|0--2--2-0--2--2-|---5--2-0--2--2-|0--2--2-0--2--2-|---5--2-0--2--2-|

(following riff is the same as on chorus)



Outro:

(4x)
E|----------------|----------------|----------------|----------------|
B|----------------|----------------|----------------|----------------|
G|----------------|----------------|----------------|----------------|
D|----------------|----------------|----------------|----------------|
G|----1-----------|----3-----------|----1-----------|----3-----------|
C|0-2---2-0-2-0-2-|0-2---2-0-2-0-2-|0-2---2-0-2-0-2-|0-2---2-0-2-6-5-|

(1x)
E|----------------|
B|----------------|
G|----------------|
D|----------------|
G|0-2-------------|
C|0-2-------------|
            
Submit corrections

comments powered by Disqus
↑ Back to top | Probot Tabs for Centuries Of Sin. Lyrics for acoustic guitar and electric guitar. 1 Tablatures and chords are parodies/interpretations of the original songs. You may use it for private study, scholarship, research or language learning purposes only