» » »

Southbound Pachydermb Bass tabs (ver.1)

Artists:  A B C D E F G H I J K L M N O P Q R S T U V W X Y Z # 

Southbound Pachydermb Bass tabs (ver.1)

Primus
Rating:
0/5 (0 votes)

Hard to play? Try these video lessons and learn fast.
                If you have a 6 string bass there is a better way to play this....

G------------------------------------------------------------------17--16-----
----------14
D--7-------9--10---------------7--9--10--10--9--5--7------17-------17---------
----
A----0--0------------0000etc--------------------------------------------------
-0--------
E-----------------------------------------------------------------------------
-----------------

strummed

G--17--17--17--17--18--19
D--17--17--17--17--18--19
A---------------------------------
E---------------------------------
 
the strummed part might also be:

G--19--19--19--19--20--21
D--19--19--19--19--20--21
A--------------------------------
E--------------------------------

he hits the 20th fret on the g and lets this ring before he does the 

G---16------------------14---
D----------17-----------------
A------------------0-----------

verse

G-----------------------------------------------------------------------------

D--10--9--7--X--5--7--7--5--7......10--9--10--12--10--12--14
A-----------------------------------------------------------------------------

E-----------------------------------------------------------------------------
            
Hard to play? Try these video lessons and learn fast. | Correct




comments powered by Disqus
↑ Back to top | Tablatures and chords are parodies/interpretations of the original songs. You may use it for private study, scholarship, research or language learning purposes only