» » »

Primus, Coattails Of A Dead Man Tabs (ver.1)

Artists:  A B C D E F G H I J K L M N O P Q R S T U V W X Y Z # 

Coattails Of A Dead Man Tabs (ver.1)

Primus Tabs
Rating:
5/5 (1 vote)
Coattails Of A Dead Man lessons Tabs too difficult? Try these video lessons and learn fast
                
this tab is not 100% correct
especially since this (awesome) song is
a bit strange. But I think this tab
should enable to play and sing along.
This tab is not very difficult
but you going to play this because it's an awesome song
right?


Enjoy!


Note: the first notes in every measure are probably only played by the bass

standard Tuning (EADGBE)
Measure: 3/4

E|------------------------------------------------------|
B|-------7---7---------7---7---------7---7--------7---7-|
G|-------8---8---------8---8---------8---8--------8---8-|
D|-------8---8---------8---8---------8---8--------8---8-|
A|-(6)-------------------------(6)----------------------|
E|---------------(6)------------------------(6)---------|
   He wasn't     lookin' for   fanfare or    fame     but it


E|------------------------------------------------------|
B|-------7---7---------7---7---------3---3--------7---7-|
G|-------8---8---------8---8---------3---3--------8---8-|
D|-------8---8---------8---8---------3---3--------8---8-|
A|-(6)-------------------------(1)----------------------|
E|---------------(6)------------------------(1)---------|
   all came   a-round just the  same                     He


E|------------------------------------------------------|
B|-------3---3---------7---7---------3---3--------3---3-|
G|-------3---3---------8---8---------3---3--------3---3-|
D|-------3---3---------8---8---------3---3--------3---3-|
A|-(1)-------------------------(1)----------------------|
E|---------------(1)------------------------(1)---------|
   then met a     Girl with  de-sire in her  eyes,


E|-----------------------------------------------------------------------|
B|-------3---3---------7---7---------3---3-----------7---7---------7---7-|
G|-------3---3---------8---8---------3---3-----------8---8---------8---8-|
D|-------3---3---------8---8---(3)--(4)-(3)----------8---8---------8---8-|
A|-(1)----------------------------------------(6)------------------------|
E|---------------(1)-----------(1)--(2)-(1)------------------(6)---------|
   he gave her   love,         she took his    name.

E|-----------------------------|
B|-------7---7---------7---7---|
G|-------8---8---------8---8---|
D|-------8---8---------8---8---|
A|-(6)-------------------------|
E|---------------(6)-----------|


The times they were good, the times they were bad,
most times it was just in between.
The hard pill he swallowed was the times that they had,
she put on display for all to be seen.

Some find their solace in work or the lord,
she was quite content in her dream.
When his eyes they burned from the bright lime light,
he found comfort in the bottle of Ol' Jimmy Beam.

One day from the depths of his deep darkened hole,
he reached out for something to feel.
She offered back nothin' but lack of respect
so he left himself out with two barrels of steel.

She cried in the day, she cried in the night.
She cried loudest when someone was near.
Whether crying for him or she cried for herself,
the bigger the camera, the bigger the tear.

Most folks agree that she was living a hell
and publicly she showed her pain.
And never once was there a thought for herself,
and the ever-growing slices of fortune and fame.

Now on the coattails of a dead man she'll ride
on the coattails of a dead man she'll ride.
On the coattails of a dead man she'll ride she'll ride,
on the coattails of a dead man she'll ride she'll ride high.
            

comments powered by Disqus
↑ Back to top | Primus Tabs for Coattails Of A Dead Man. Lyrics for acoustic guitar and electric guitar. Tablatures and chords are parodies/interpretations of the original songs. You may use it for private study, scholarship, research or language learning purposes only