» » »

Performance Tabs (ver.1)

Artists:  A B C D E F G H I J K L M N O P Q R S T U V W X Y Z # 

Performance Tabs (ver.1)

Priestess
Rating:
5/5 (2 votes)

Hard to play? Try these video lessons and learn fast.
                

  Main Riff – X2
E|--------------------------------------------------------------|
B|--------------------------------------------------------------|
G|-4-4-4-4-4-4-4-4---------------4-4-4-4-4-4-4-4----------------|
D|-4-4-4-4-4-4-4-4-4-4-4-4-4-4-4-4-4-4-4-4-4-4-4-4-4-4-7-7-7-7-7|
A|-2-2-0-2-2-0-2-0-4-4-4-4-4-4-4-2-2-0-2-2-0-2-0-4-4-4-7-7-7-7-7|
E|-----------------2-2-2-2-2-2-2-----------------2-2-2-5-5-5-9-9|

  Verse – X4
E|-----------------------------------------------------------------|
B|-----------------------------------------------------------------|
G|-4-4-4-4-4-4-4-4--7-7-7-7-7-7-7-7-4-4-4-4-4-4-4-4-4-4-4-4-4-4-4-4|
D|-4-4-4-4-4-4-4-4--7-7-7-7-7-7-7-7-4-4-4-4-4-4-4-4-4-4-4-4-4-4-4-4|
A|-2-2-2-2-2-2-2-2--5-5-5-5-5-5-5-5-2-2-0-2-2-0-2-0-2-2-0-2-2-0-2-0|
E|-----------------------------------------------------------------|

  Break – X1
E|----------------------------------------------------------------|
B|----------------------------------------------------------------|
G|----------------------------------------------------------------|
D|-4-4-4-4-4-4-4-5-5-5-5-5-5-5-2-2-2-2-2-2-2-4-4-4-4-4-4-4--------|
A|-4-4-4-4-4-4-4-5-5-5-5-5-5-5-2-2-2-2-2-2-2-4-4-4-4-4-4-4--------|
E|-2-2-2-2-2-2-2-3-3-3-3-3-3-3-0-0-0-0-0-0-0-2-2-2-2-2-2-2--------|

E|------------------------------------|
B|------------------------------------|
G|------------------------------------|
D|-2-2-2-2-2-2-2-2-2-2-2-2-2-2-2-2-2--|
A|-2-2-2-2-2-2-2-2-2-2-2-2-2-2-2-2-2--|
E|-0-0-0-0-0-0-0-0-0-0-0-0-0-0-0-0-0--|

  Chorus – X2
E|------------------------------------------------------|
B|------------------------------------------------------|
G|-4-4-4-4-4-4-4-4-4-4-4-4-4-4-4-4-4-4-4-4-4-4-4-4------|
D|-4-4-4-4-4-4-4-4-4-4-4-4-4-4-4-4-4-4-4-4-4-4-4-4------|
A|-2-2-2-2-0-0-2-2-2-2-0-0-2-2-2-2-0-0-2-2-2-2-0-0------|
E|------------------------------------------------------|

  After Chorus – X1 
E|----------------------------------|
B|----------------------------------|
G|----------------------------------|
D|-5-5-5-5-5-5-5-4-4-4-4-4-4-4-4-2--|
A|-5-5-5-5-5-5-5-4-4-4-4-4-4-4-4-2--|
E|-3-3-3-3-3-3-3-2-2-2-2-2-2-2-2-0--|


E|--------------------|
B|--------------------|
G|--------------------|
D|-4-4-4-7-7-7-7-7-7--|
A|-4-4-4-7-7-7-7-7-7--|
E|-2-2-2-5-5-5-9-9-9--|

Verse – X4
E|-----------------------------------------------------------------|
B|-----------------------------------------------------------------|
G|-4-4-4-4-4-4-4-4--7-7-7-7-7-7-7-7-4-4-4-4-4-4-4-4-4-4-4-4-4-4-4-4|
D|-4-4-4-4-4-4-4-4--7-7-7-7-7-7-7-7-4-4-4-4-4-4-4-4-4-4-4-4-4-4-4-4|
A|-2-2-2-2-2-2-2-2--5-5-5-5-5-5-5-5-2-2-0-2-2-0-2-0-2-2-0-2-2-0-2-0|
E|-----------------------------------------------------------------|

  Break – X1
E|----------------------------------------------------------------|
B|----------------------------------------------------------------|
G|----------------------------------------------------------------|
D|-4-4-4-4-4-4-4-5-5-5-5-5-5-5-2-2-2-2-2-2-2-4-4-4-4-4-4-4--------|
A|-4-4-4-4-4-4-4-5-5-5-5-5-5-5-2-2-2-2-2-2-2-4-4-4-4-4-4-4--------|
E|-2-2-2-2-2-2-2-3-3-3-3-3-3-3-0-0-0-0-0-0-0-2-2-2-2-2-2-2--------|

E|------------------------------------|
B|------------------------------------|
G|------------------------------------|
D|-2-2-2-2-2-2-2-2-2-2-2-2-2-2-2-2-2--|
A|-2-2-2-2-2-2-2-2-2-2-2-2-2-2-2-2-2--|
E|-0-0-0-0-0-0-0-0-0-0-0-0-0-0-0-0-0--|

Chorus – X2
E|------------------------------------------------------|
B|------------------------------------------------------|
G|-4-4-4-4-4-4-4-4-4-4-4-4-4-4-4-4-4-4-4-4-4-4-4-4------|
D|-4-4-4-4-4-4-4-4-4-4-4-4-4-4-4-4-4-4-4-4-4-4-4-4------|
A|-2-2-2-2-0-0-2-2-2-2-0-0-2-2-2-2-0-0-2-2-2-2-0-0------|
E|------------------------------------------------------|

  After Chorus – X1 
E|--------------------------------------|
B|--------------------------------------|
G|--------------------------------------|
D|-5-5-5-5-5-5-5-4-4-4-4-4-4-4-4-2-2-2-2|
A|-5-5-5-5-5-5-5-4-4-4-4-4-4-4-4-2-2-2-2|
E|-3-3-3-3-3-3-3-2-2-2-2-2-2-2-2-0-0-0-0|

E|--------------------------------------------------------------|
B|--------------------------------------------------------------|
G|---------4-4-4-4-4-4-4---------------4-4-4-4-4-4-4------------|
D|-2-2-5-7-4-4-4-4-4-4-4-2-2-2-2-2-2-2-4-4-4-4-4-4-4------------|
A|-2-2-5-7-2-2-2-2-2-2-2-2-2-2-2-2-2-2-2-2-2-2-2-2-2------------|
E|-0-0-3-5---------------0-0-0-0-0-0-0--------------------------|

E|-------------------------------------|
B|-------------------------------------|
G|-------------------------------------|
D|-2-2-2-2-2-2-4-4-4-4-4-2-2-2-2-2-2---|
A|-2-2-2-2-2-2-4-4-4-4-4-2-2-2-2-2-2---|
E|-0-0-0-0-0-0-2-2-2-2-2-0-0-0-0-0-0---|

Chorus – X10
E|------------------------------------------------------|
B|------------------------------------------------------|
G|-4-4-4-4-4-4-4-4-4-4-4-4-4-4-4-4-4-4-4-4-4-4-4-4------|
D|-4-4-4-4-4-4-4-4-4-4-4-4-4-4-4-4-4-4-4-4-4-4-4-4------|
A|-2-2-2-2-0-0-2-2-2-2-0-0-2-2-2-2-0-0-2-2-2-2-0-0------|
E|------------------------------------------------------|
            
Hard to play? Try these video lessons and learn fast. | Correct




comments powered by Disqus
↑ Back to top | Tablatures and chords are parodies/interpretations of the original songs. You may use it for private study, scholarship, research or language learning purposes only