» » »

Performance Bass tabs (ver.1)

Artists:  A B C D E F G H I J K L M N O P Q R S T U V W X Y Z # 

Performance Bass tabs (ver.1)

Priestess
Rating:
4/5 (2 votes)

Hard to play? Try these video lessons and learn fast.
                

  Main Riff – X2
G|---------------------------------|
D|---------------------------------|
A|---------------------------------|
E|-----------------2-2-2-5-5-5-9-9-|

  Verse – X4

G|-----------------------------------------------------------------|
D|-----------------------------------------------------------------|
A|-2-2-2-2-2-2-2-2--5-5-5-5-5-5-5-5-2-2-0-2-2-0-2-0-2-2-0-2-2-0-2-0|
E|-----------------------------------------------------------------|

  Break – X1
G|----------------------------------------------------------------|
D|----------------------------------------------------------------|
A|----------------------------------------------------------------|
E|-2-2-2-2-2-2-2-3-3-3-3-3-3-3-0-0-0-0-0-0-0-2-2-2-2-2-2-2--------|

G|------------------------------------|
D|------------------------------------|
A|------------------------------------|
E|-0-0-0-0-0-0-0-0-0-0-0-0-0-0-0-0-0--|

  Chorus – X2
G|------------------------------------------------------|
D|------------------------------------------------------|
A|-2-2-2-2-0-0-2-2-2-2-0-0-2-2-2-2-0-0-2-2-2-2-0-0------|
E|------------------------------------------------------|

  After Chorus – X1 
G|----------------------------------|
D|----------------------------------|
A|----------------------------------|
E|-3-3-3-3-3-3-3-2-2-2-2-2-2-2-2-0--|

G|--------------------|
D|--------------------|
A|--------------------|
E|-2-2-2-5-5-5-9-9-9--|

Verse – X4
G|-----------------------------------------------------------------|
D|-----------------------------------------------------------------|
A|-2-2-2-2-2-2-2-2--5-5-5-5-5-5-5-5-2-2-0-2-2-0-2-0-2-2-0-2-2-0-2-0|
E|-----------------------------------------------------------------|

  Break – X1
G|----------------------------------------------------------------|
D|----------------------------------------------------------------|
A|----------------------------------------------------------------|
E|-2-2-2-2-2-2-2-3-3-3-3-3-3-3-0-0-0-0-0-0-0-2-2-2-2-2-2-2--------|

G|------------------------------------|
D|------------------------------------|
A|------------------------------------|
E|-0-0-0-0-0-0-0-0-0-0-0-0-0-0-0-0-0--|

Chorus – X2
G|------------------------------------------------------|
D|------------------------------------------------------|
A|-2-2-2-2-0-0-2-2-2-2-0-0-2-2-2-2-0-0-2-2-2-2-0-0------|
E|------------------------------------------------------|

After Chorus – X1 
G|----------------------------------|
D|----------------------------------|
A|----------------------------------|
E|-3-3-3-3-3-3-3-2-2-2-2-2-2-2-2-0--|

G|-------------------------------------------------------|
D|-------------------------------------------------------|
A|---------2-2-2-2-2-2-2-------------2-2-2-2-2-2-2-2-----|
E|-0-0-3-5---------------0-0-0-0-0-0-0-------------------|

G|-------------------------------------|
D|-------------------------------------|
A|-------------------------------------|
E|-0-0-0-0-0-0-2-2-2-2-2-0-0-0-0-0-0---|

  Chorus – X10
G|------------------------------------------------------|
D|------------------------------------------------------|
A|-2-2-2-2-0-0-2-2-2-2-0-0-2-2-2-2-0-0-2-2-2-2-0-0------|
E|------------------------------------------------------|
            
Hard to play? Try these video lessons and learn fast. | Correct




comments powered by Disqus
↑ Back to top | Tablatures and chords are parodies/interpretations of the original songs. You may use it for private study, scholarship, research or language learning purposes only