>
 >
Dendang Perantau

Dendang Perantau Guitar Tabs

P Ramlee - Dendang Perantau chords, tabs, tablatures, lyrics

Guitar lessons | Add/correct | Request | Top 50 tabs Artists:  A B C D E F G H I J K L M N O P Q R S T U V W X Y Z 0-9

Dendang Perantau Guitar Tabs – P Ramlee

CD, Sheet music, Poster

Do you like Dendang Perantau? Share with your friends now
ChordsTabsTabs v2Ukulele
e|-----------6~6s6-------------6s--9----8---6--8---6--------------------|
B|---6--7----------------7s-9s-------------------------10~--------------|
G|----------------------------------------------------------------------|
D|----------------------------------------------------------------------|
A|----------------------------------------------------------------------|
E|----------------------------------------------------------------------|



e|----------8~ 6~ 4s 6~~--4----------------------------------------|
B|--8s9s10-------------------7~~--6--8s9---6s8---5~~---------------|
G|-----------------------------------------------------------------|
D|-----------------------------------------------------------------|
A|-----------------------------------------------------------------|
E|-----------------------------------------------------------------|


e|--------------------------------------------------------------|
B|----------------------5--6s--5~--7s-5~~-----------------------|
G|------------5s-6s--8------------------------------------------|
D|----5s--7-----------------------------------------------------|
A|--------------------------------------------------------------|
E|--------------------------------------------------------------|





e|---------------------------------------------------------------|
B|------5--8--7~--5--3~--5~-3~-----------------------------------|
G|---7-8---------------------------------------------------------|
D|---------------------------------------------------------------|
A|---------------------------------------------------------------|
E|---------------------------------------------------------------|





e|---------------------------------------------------------------|
B|---------3----7~--6--5--6---2~~--------------------------------|
G|---5-6---------------------------------------------------------|
D|---------------------------------------------------------------|
A|---------------------------------------------------------------|
E|---------------------------------------------------------------|




e|----------------------------------------------------------------------------|
B|--5--3--6~~-4~---6S7S-6----6------------------------------------------------|
G|-------------------------8----6--8---5S---5S--------------------------------|
D|---------------------------------------6-------8~~--------------------------|
A|----------------------------------------------------------------------------|
E|----------------------------------------------------------------------------|





Comments


Popular P Ramlee tabs & chords
Bunyi Gitar 1 Chords
Di Mana Kan Ku Cari Ganti Chords
Getaran Jiwa Chords
Jeritan Batinku Chords
Malam Bulan Dipagar Bintang Chords
Dendang Perantau 2 Tabs
Anak Ku Sazali Ukulele
Dendang Perantau Ukulele
Sedangkan Lidah Lagi Tergigit Ukulele
Tunggu Sekejap Ukulele


Song lyrics



↑ Back to top | Tablatures and chords are parodies/interpretations of the original songs. You may use it for private study, scholarship, research or language learning purposes only
© 2014 AZChords.com Contact us | Privacy policy | DMCA | Add/correct tabs | Request tabs | Top 50 tabs