>
 >
Bunyi Gitar

Bunyi Gitar Guitar Tabs

P Ramlee - Bunyi Gitar chords, tabs, tablatures, lyrics

Guitar lessons | Add/correct | Request | Top 50 tabs Artists:  A B C D E F G H I J K L M N O P Q R S T U V W X Y Z 0-9

Bunyi Gitar Guitar Tabs – P Ramlee

CD, Sheet music, Poster

Do you like Bunyi Gitar? Share with your friends now
ChordsChords v2TabsTabs v2Ukulele
Intro
     E     D   E      D
e|--------------------7-7--7-5-7----|--------------------7-7--7-5-7----|
b|------5-7-8-7-8-5---9-9--9-7-9----|------5-7-8-7-8-5---9-9--9-7-9----|
G|--4-6---------------9-9--9-7-9----|--4-6---------------9-9--9-7-9----|
D|--------------------9-9--9-7-9----|--------------------9-9--9-7-9----|
A|--------------------7X7--7-5-7---|--------------------7-7--7-5-7----|
E|----------------------------------|----------------------------------|

AB     E     D   E
e|-12-12-12-12-10-9--------|----------------|--11-11-9-------------|-----------|
b|------------------12-10--|--9-10-11-12----|----------12-10-9-7-5-|-3-3-3-5-5-|
G|-------------------------|----------------|----------------------|-----------|
D|-------------------------|----------------|----------------------|-----------|
A|-------------------------|----------------|----------------------|-----------|
E|-------------------------|----------------|----------------------|-----------|


Verse

EEm
e|--7-7-7-7-7-7-5-4-7--|--7-7-7-7-7-7-5-3-7--|
b|---------------------|---------------------|
G|---------------------|---------------------|
D|---------------------|---------------------|
A|---------------------|---------------------|
E|---------------------|---------------------|

 
EB
e|--7-7-7-7-7-7-5-4-7--|--12-12-12-12-12-12-10-7-12--|
b|---------------------|-----------------------------|
G|---------------------|-----------------------------|
D|---------------------|-----------------------------|
A|---------------------|-----------------------------|
E|---------------------|-----------------------------|





Comments


Popular P Ramlee tabs & chords
Anak Ku Sazali Chords
Dendang Perantau Chords
Malam Bulan Dipagar Bintang Chords
Sedangkan Lidah Lagi Tergigit Chords
Tunggu Sekejap Chords
Dendang Perantau Tabs
Dendang Perantau 2 Tabs
Bunyi Gitar Ukulele
Dendang Perantau Ukulele
Sedangkan Lidah Lagi Tergigit Ukulele


Song lyrics



↑ Back to top | Tablatures and chords are parodies/interpretations of the original songs. You may use it for private study, scholarship, research or language learning purposes only
© 2014 AZChords.com Contact us | Privacy policy | DMCA | Add/correct tabs | Request tabs | Top 50 tabs