» » »

P Ramlee, Bunyi Gitar Tabs (ver.2)

Artists:  A B C D E F G H I J K L M N O P Q R S T U V W X Y Z # 

Bunyi Gitar Tabs (ver.2)

P Ramlee Tabs
 Rating:
4/5 (4 votes)
Bunyi Gitar lessons Tabs too difficult? Try these video lessons and learn fast
1
                Intro
                       E     D  E                        E      D  E      
e|--------------------7-7--7-5-7----|--------------------7-7--7-5-7----|
b|------5-7-8-7-8-5---9-9--9-7-9----|------5-7-8-7-8-5---9-9--9-7-9----|
G|--4-6---------------9-9--9-7-9----|--4-6---------------9-9--9-7-9----|
D|--------------------9-9--9-7-9----|--------------------9-9--9-7-9----|
A|--------------------7�X7--7-5-7---|--------------------7-7--7-5-7----|
E|----------------------------------|----------------------------------|
  A                 B        E               D                      E
e|-12-12-12-12-10-9--------|----------------|--11-11-9-------------|-----------|
b|------------------12-10--|--9-10-11-12----|----------12-10-9-7-5-|-3-3-3-5-5-|
G|-------------------------|----------------|----------------------|-----------|
D|-------------------------|----------------|----------------------|-----------|
A|-------------------------|----------------|----------------------|-----------|
E|-------------------------|----------------|----------------------|-----------|

Verse
    E                     Em
e|--7-7-7-7-7-7-5-4-7--|--7-7-7-7-7-7-5-3-7--|
b|---------------------|---------------------|
G|---------------------|---------------------|
D|---------------------|---------------------|
A|---------------------|---------------------|
E|---------------------|---------------------|
   Bunyi gitar  irama twist
 
  E                       B
e|--7-7-7-7-7-7-5-4-7--|--12-12-12-12-12-12-10-7-12--|
b|---------------------|-----------------------------|
G|---------------------|-----------------------------|
D|---------------------|-----------------------------|
A|---------------------|-----------------------------|
E|---------------------|-----------------------------|
   Tidak sabar  si gadis manis

   A
Dengar lagu rancak gembira
   Am
Hatinya rindu tergoda
E  B  E  D  E
Ingin dapat teman menari suka ria
E Em
Oh sungguh merdu lagu ini
E  B
Siapa mahu boleh menari
A
Pilih satu teman sendiri
Am
Atau kasih hitam manis
E  B  E  D  E
Kalau sudi mari kita menari twist

Chorus
DE
Oh gitar berbunyi
DE
Menawan hati sedang berahi
AC#m
Oh rancaknya irama
  F#mF#m
Dapat pikat sukma gadis dan teruna
  B
Mahu cari teman gembira
E   Em
Bunyi gitar solo dan melodie
  EB
Ikut tempo kalau menari
 A
Sila adik sila cik abang
Am
Marilah kita berdendang
   E    BE  D  E
Irama gembira hati jadi riang
 
Solo
(Trumpet)
  E                                  Em            EB
e|--------4-|---------7--|-------4--|-7-7-10-9-7--|-12-12-12-12-12-12-10-7-12-|
b|------5---|-----5-8--8-|-----5----|-------------|---------------------------|
G|--4-6-----|-4-6--------|-4-6------|-------------|---------------------------|
D|----------|------------|----------|-------------|---------------------------|
A|----------|------------|----------|-------------|---------------------------|
E|----------|------------|----------|-------------|---------------------------|
(Guitar)
 A                                                               Am
e|----9----12-12-14/15-12-12�X-12-12-12-|-12-12-12--12----12---|-12-12-12-12-12|
b|-12---12-----------------------------|--------------13----13|-12-12-12-12-12-|
G|-------------------------------------|----------------------|-12-12-12-12-12-|
D|-------------------------------------|----------------------|----------------|
A|-------------------------------------|----------------------|----------------|
E|-------------------------------------|----------------------|----------------|
  E        B        E                        D     E
e|-------------9-|-------------------------|-------------|
b|--/9-12-9-12---|-12-12-10-10-9-9-7-7-5---|--5-5-5-3-5--|
G|---------------|-------------------------|-------------|
D|---------------|-------------------------|-------------|
A|---------------|-------------------------|-------------|
E|---------------|-------------------------|-------------|
(Trumpet)
   E                                  Em           E                    B
e|--------4-|---------7--|-------4--|-7-7-10-9-7--|-12-12-12-12-12-12-10-7-12-|
b|------5---|-----5-8--8-|-----5----|-------------|---------------------------|
G|--4-6-----|-4-6--------|-4-6------|-------------|---------------------------|
D|----------|------------|----------|-------------|---------------------------|
A|----------|------------|----------|-------------|---------------------------|
E|----------|------------|----------|-------------|---------------------------|
(Guitar)
  A                                       Am
e|----9--12-12-14/15-12-12�X-12-12-12---|-12-12-12----12-15----12-15-|
b|-12----------------------------------|----------13-------13--------|
G|-------------------------------------|-----------------------------|
D|-------------------------------------|-----------------------------|
A|-------------------------------------|-----------------------------|
E|-------------------------------------|-----------------------------|
    E                B                 E                         D      E
e|--12-12-12-12-12--|----------------|-------------------------|-------------|
b|--12-12-12-12-12--|---12-9-12-9----|-12-12-10-10-9-9-7-7-5---|--5-5-5-3-5--|
G|--12-12-12-12-12--|----------------|-------------------------|-------------|
D|------------------|----------------|-------------------------|-------------|
A|------------------|----------------|-------------------------|-------------|
E|------------------|----------------|-------------------------|-------------|

 
Chorus
DE
Oh guitar berbunyi
DE
Menawan hati sedang berahi
AC#m
Oh rancaknya irama
  F#mF#m
Dapat pikat sukma gadis dan teruna
  B
Mahu cari teman gembira
E   Em
Bunyi gitar solo dan melodie
  EB
Ikut tempo kalau menari
 A
Sila adik sila cik abang
Am
Marilah kita berdendang
   E    BE  D  E
Irama gembira hati jadi riang
            
Submit corrections

comments powered by Disqus
↑ Back to top | P Ramlee Tabs for Bunyi Gitar. Lyrics for acoustic guitar and electric guitar. 1 Tablatures and chords are parodies/interpretations of the original songs. You may use it for private study, scholarship, research or language learning purposes only