» » »

Powerman 5000, Super Nova Goes Pop Tabs (ver.2)

Artists:  A B C D E F G H I J K L M N O P Q R S T U V W X Y Z # 

Super Nova Goes Pop Tabs (ver.2)

Powerman 5000 Tabs
Rating:
0/5 (0 votes)
Super Nova Goes Pop lessons Tabs too difficult? Try these video lessons and learn fast
                
          This is my first tab, so please send any
corrections/comments/questions to me!!!  This song is played pretty fast. 
Sometimes in the song you will hear a scratching sound.  That sound is made by
scr*ping the pick up or down on the string. (I will refer to it as a pickslide)
          HEAVY DISTORTION!!! Standard Tuning.


          Intro/ Verse:                   every now and then it goes:
          e]------------------------         e]-----------------------
          B]------------------------         B]-----------------------
          G]------------------------         G]-----------------------
          D]---0-0-2-2-2-0-0-5-5-5--         D]---0-0-2-2-2-0-0-5/6/5-
          A]---0-0-2-2-2-0-0-5-5-5--         A]---0-0-2-2-2-0-0-5/6/5-
          E]---0-0-0-0-0-0-0-3-3-3--         E]---0-0-0-0-0-0-0-3/4/3-


          Use a slider for this part:
          G]-----------
          D]---1/12----   (it only happens twice in the whole song.)
          A]-----------


          The Chorus:
          e]----------------------------------------------------
          B]----------------------------------------------------
          G]---7-7-7-------------------------7-7-7--------------
          D]---7-7-7--7-7-7-5-5-5-2-2-2-xxx--7-7-7--7-7-7-5-7---
          A]---5-5-5--7-7-7-5-5-5-2-2-2-xxx--5-5-5--7-7-7-5-7---
          E]----------5-5-5-3-3-3-0-0-0-xxx---------5-5-5-3-5---


          Solo:
          G]-------------------
          D]-xxx---------------
          A]-xxx---2-2-4-2-----
          E]-xxx-----------3-2-


          Ending:
          e]----------------------------------
          B]----------------------------------
          G]---7-7-7--------------------------
          D]---7-7-7--7-7-7-5-5-5-2-2-2-5-5-7-
          A]---5-5-5--7-7-7-5-5-5-2-2-2-5-5-5-
          E]----------5-5-5-3-3-3-0-0-0-3-3-5-  palm mute last chord.

          Format:
          Intro, pick slide, verse, slide, verse, pick slide, verse,
          chorus, solo, verse, pick slide, verse, slide, verse,
          pick slide, verse, chorus, solo, verse, ending.

===

Supernova goes pop by powerman 5000
this is a cool song and like drop d tuning or
Eb, Bb, F#, C#, G#, C#


Dropped D Tuning
intro heavy dist
Intro/ verse for a verse have gtr 2 sctratch C#
D:-0--0--3-3-3-0---0---6-6-6-0---0---3-3-3-0---0---0h3s6s3-
A:-0--0--3-3-3-0---0---6-6-6-0---0---3-3-3-0---0---0h3s6s3-
D:-0--0--3-3-3-0---0---6-6-6-0---0---3-3-3-0---0---0h3s6s3-

Played with main riff  b=bend (use a little phaser here)
B-10--12--10--14--10--12--10--9b----10--12--10--14--10--12--10--14-16s17--Chorus (dist. and a little phaser)
D---19-19-19--15-15-15--17-17-17--13-13-13---x-x-0----19-19-19--15-15-15--21-21-21-21-
A---19-19-19--15-15-15--17-17-17--13-13-13---x-x-0----19-19-19--15-15-15--21-21-21-21-
D---19-19-19--15-15-15--17-17-17--13-13-13---x-x-0----19-19-19--15-15-15--21-21-21-21-
Follow for now........
gtr 2
E--------------------------------------
B--------------------------------------
G--------------------------------------
D-----------------------------x-x-x----
A-----------------------------x-x-x----
D-----------------------------x-x-x----
            

comments powered by Disqus
↑ Back to top | Powerman 5000 Tabs for Super Nova Goes Pop. Lyrics for acoustic guitar and electric guitar. Tablatures and chords are parodies/interpretations of the original songs. You may use it for private study, scholarship, research or language learning purposes only