» » »

Super Nova Goes Pop Bass tabs (ver.1)

Artists:  A B C D E F G H I J K L M N O P Q R S T U V W X Y Z # 

Super Nova Goes Pop Bass tabs (ver.1)

Powerman 5000
Rating:
0/5 (0 votes)

Hard to play? Try these video lessons and learn fast.
                ok this is a pretty easy song but its really good  here we go......

 intro & bridge
g-----------------------------------------------
d-----------------------------------------------
a-----------------------------------------------
d-0--0--222---0--0--555---0--0---222---0--0--4/2

verse part 1
g-----------------------------------------------
d-----------------------------------------------
a-----------------------------------------------
d-0--0---222--0--0---555------------------------

verse part 2
g-----------------------------------------------
d-----------------------------------------------
a-----------------------------------------------
d-0--0---222------------------------------------

im not listening to the song right now, so if there 
is a third part to the verse break down the intro and bridge

chorus
g-----------------------------------------------
d-----------------------------------------------
a-----------------------------------------------
d-0-2-4-2-0-2-0-2-0-2--0-2-4-2-0----------------

outro  (after bridge)
g-----------------------------------------------
d-----------------------------------------------
a---4-------------------------------------------
d------4-3-2-0-0--------------------------------
            
Hard to play? Try these video lessons and learn fast. | Correct




comments powered by Disqus
↑ Back to top | Tablatures and chords are parodies/interpretations of the original songs. You may use it for private study, scholarship, research or language learning purposes only