>
 >
 >
Panaginip 1

Panaginip 1 Guitar Tabs

Pot - Panaginip 1 chords, tabs, tablatures, lyrics

Guitar lessons | Add/correct | Request | Top 50 tabs Artists:  A B C D E F G H I J K L M N O P Q R S T U V W X Y Z 0-9

Panaginip 1 Guitar Tabs – Pot

CD, Sheet music, Poster

Do you like Panaginip 1? Share with your friends now
ChordsTabsTabs v2Ukulele
                              Panaginip
                               by POT



/ - slide

intro:
e|-----7---9--9/11---7---7/9--9/7-7----------7/9-------------|
B|-9---------------------------------------9-----------------|
G|-----4---6--6/8----4---4/6--6/4-4----------4/6-------------|
D|-6---------------------------------------6-----------------|
A|-----------------------------------------------------------|
E|-----------------------------------------------------------|


e|-----7---9 -9/11----14--9-----------------7----7/9---7-----|
b|-9-----------------------------------10--------------------|
g|-----4---6--6/8----11---6-----------------4----4/6---4-----|
d|-6------------------------------------7--------------------|
a|-----------------------------------------------------------|
E|-----------------------------------------------------------|

stanza:
just do the right strumming. too lazy to type it.
    F#M7     EM7           F#M7     EM7   
e|---9--------7------------9--------7------------------------|
B|---11-------9------------11-------9------------------------|
G|---10-------8------------10-------8------------------------|
D|---11-------9------------11-------9------------------------|
A|---9--------7------------9--------7------------------------|
E|-----------------------------------------------------------|

pre-chorus:
    DM7      CM7      Am7     C#M7  DM7
e|---5--------3--------5-------4-----5-----------------------|
B|---7--------5--------5-------6-----7-----------------------|
G|---6--------4--------5-------5-----6-----------------------|
D|---7--------5--------5-------6-----7-----------------------|
A|---5--------3--------7-------4-----5-----------------------|
E|---------------------5-------------------------------------|

chorus:

e|-----10---12--12/14----10---10/12---12/10------10---10/12------|
B|-12-----------------------------------------12-----------------|
G|-----7----9----9/11-----7----7/9-----9/7--------7----7/9-------|
D|-9-------------------------------------------9-----------------|
A|---------------------------------------------------------------|
E|---------------------------------------------------------------|

e|-----10---12--12/14----17----12----------------10----10/12---10----|
b|-12-----------------------------------13---------------------------|
g|------7----9---9/11----14----9-----------------7------7/9----7-----|
d|-9------------------------------------10---------------------------|
a|-------------------------------------------------------------------|
E|-------------------------------------------------------------------|

after chorus:
     CM7     C#M7
e|----3-------4------------|
B|----5-------6------------|
G|----4-------5------------|
D|----5-------6------------|
A|----3-------4------------|
E|-------------------------|

stanza:
pre chorus:
chorus:

bridge:

    EM7  DM7  Bm7 CM7     Am7  Dm7   E7  C#7sus C#7
e|---7----5----2----3------5----5-----0----4----4-----------------|
B|---9----7----3----5------5----6-----0----7----6-----------------|
G|---8----6----2----4------5----5-----1----4----4-----------------|
D|---9----7----4----5------5----7-----0----6----6-----------------|
A|---7----5----2----3------7----5-----2----4----4-----------------|
E|-------------------------5----------0---------------------------|


chorus2:
its like an intro
e|-----7---9--9/11---7---7/9--9/7-7----------7/9-------------|
B|-9---------------------------------------9-----------------|
G|-----4---6--6/8----4---4/6--6/4-4----------4/6-------------|
D|-6---------------------------------------6-----------------|
A|-----------------------------------------------------------|
E|-----------------------------------------------------------|


e|-----7---9 -9/11----14 --9-----------------7----7/9---7-----|
b|-9-----------------------------------10---------------------|
g|------4---6--6/8----11---6-----------------4----4/6---4-----|
d|-6------------------------------------7---------------------|
a|------------------------------------------------------------|
E|------------------------------------------------------------|

chorus outro: 

e|-----10---12--12/14----10---10/12---12/10------10---10/12-------|
B|-12-----------------------------------------12------------------|
G|-----7----9----9/11-----7----7/9-----9/7---------7----7/9-------|
D|-9-------------------------------------------9------------------|
A|----------------------------------------------------------------|
E|----------------------------------------------------------------|

e|-----10---12--12/14----17----12----------------10----10/12---10-----|
b|-12-----------------------------------13----------------------------|
g|------7----9---9/11-----14----9-----------------7-----7/9----7------|
d|-9------------------------------------10----------------------------|
a|--------------------------------------------------------------------|
E|--------------------------------------------------------------------|

the end....





Comments


Popular Pot tabs & chords
Yugyugan Na Bass Tabs
Yugyugan Na 1 Bass Tabs
Panaginip Chords
Ulitin Chords
Yugyugan Na Chords
Fyb Tabs
Piece Of This Tabs
Posse-Bility Tabs
Panaginip Ukulele
Ulitin Ukulele


Song lyrics



↑ Back to top | Tablatures and chords are parodies/interpretations of the original songs. You may use it for private study, scholarship, research or language learning purposes only
© 2014 AZChords.com Contact us | Privacy policy | DMCA | Add/correct tabs | Request tabs | Top 50 tabs