>
 >
Monster You Made 1

Monster You Made 1 Guitar Tabs

Pop Evil - Monster You Made 1 chords, tabs, tablatures, lyrics

Guitar lessons | Add/correct | Request | Top 50 tabs Artists:  A B C D E F G H I J K L M N O P Q R S T U V W X Y Z 0-9

Monster You Made 1 Guitar Tabs – Pop Evil

CD, Sheet music, Poster

Do you like Monster You Made 1? Share with your friends now
ChordsTabsTabs v2Tabs v3Tabs v4
  I broke it down and tabbed it from start to beginning, so
 just follow it down and play along. but its a well written
 song and easy to play so enjoy. Also, this is my first
 tab so I'd appreciate any kind of feedback.

1/2 step down in drop D~ (C#,G#,C#,F#,A#,d#)

(Verse 1)
d#|----------|----------------|
A#|----------|----------------|
F#|----------|----------------|
C#|---2-0--0-|---9----9--(x6)-|
G#|--0-------|--7-7--7-7------|
C#|-4-----0-0|-7----6---------|

(Pre-chorus)
d#|----------------------------|
A#|----------------------------|
F#|----------------------------|
C#|-0-0-0----22222222----------|
G#|-0---0----22222222----------|
C#|-0---0----22222222----------|

(Chorus)
d#|----------------------------|--------------------------|
A#|----------------------------|--------------------------|
F#|-------77777------99999------|-----77x----99x----------|
C#|-44444-77777-77777-99999-(x2)-|-44x-77x-77x-99x--------|
G#|-44444-55555-77777-77777------|-44x-55x-77x-99x--------|
C#|-44444-------77777-----------|-44x-----77x-------------|

d#|-----------------|--------------|
A#|-----------------|--------------|
F#|-------77777-----|--------------|
C#|-44444-77777-777--|-2-0---------|
G#|-44444-55555-777--|------4-0----|
C#|-44444-------777--|-------------|


(Verse 2)
d#|----------|----------------|
A#|----------|----------------|
F#|----------|----------------|
C#|---2-0--0-|---9----9--(x6)-|
G#|--0-------|--7-7--7-7------|
C#|-4-----0-0|-7----6---------|

(Pre-chorus)
d#|-------------------------------|
A#|-------------------------------|
F#|-------------------------------|
C#|-0-0-0-0-0----22222222---------|
G#|-0---0---0----22222222---------|
C#|-0---0---0----22222222---------|

(Chorus)
d#|-----------------------------|--------------------------|
A#|-----------------------------|--------------------------|
F#|-------77777------99999-------|-----77x----99x----------|
C#|-44444-77777-77777-99999--(x2)-|-44x-77x-77x-99x--------|
G#|-44444-55555-77777-77777-------|-44x-55x-77x-99x--------|
C#|-44444-------77777------------|-44x-----77x-------------|


d#|------------------|--------------|
A#|------------------|--------------|
F#|-------77777------|--------------|
C#|-44444-77777-777---|-2-0---------|
G#|-44444-55555-777---|------4-0----|
C#|-44444-------777---|-------------|

d#|---------------------------------------------|
A#|---------------------------------------------|
F#|-77777777-66666666---------------------------|
C#|-77777777-66666666-44444444-22222222-(x2)----|
G#|-55555555-44444444-44444444-22222222---------|
C#|------------------44444444-22222222----------|

(Verse 3)
d#|----------|----------------|--------------|-----------|
A#|----------|----------------|--------------|-----------|
F#|----------|----------------|--------------|-----------|
C#|---2-0--0-|---9----9--(x1)-|----2-0---0---|----9----9-|
G#|--0-------|--7-7--7-7------|--0-----------|--7--7---7-|
C#|-4-----0-0|-7----6---------|-4------0---0-|-7-------6-|


(Chorus)
d#|----------------------------|-------------------------------|
A#|----------------------------|-------------------------------|
F#|-------77777------99999------|-----77x------99999-----------|
C#|-44444-77777-77777-99999-(x2)-|-44x-77x-77777-99999---------|
G#|-44444-55555-77777-77777------|-44x-55x-77777-99999---------|
C#|-44444-------77777-----------|-44x-----77777----------------|

d#|----------------------------|-----------------------|
A#|----------------------------|-----------------------|
F#|-------77777------99999------| ------77777----------|
C#|-44444-77777-77777-99999-(x4)-|-44444-77777-777-----|
G#|-44444-55555-77777-77777------|-44444-55555-777-----|
C#|-44444-------77777-----------|-44444-------777------|

d#|-----------|-------------------------|-------------|
A#|-----------|-------------------------|-------------|
F#|-----------|-------------------------|-------------|
C#|-2-0-------|---2-0--------9------9---|-------2-0---|
G#|------4-0--|--0----------7-7----7-7--|-----0-------|
C#|-----------|-4-----0----7------6-----|---4-------0-|





Comments


Popular Pop Evil tabs & chords
Deal With The Devil Bass Tabs
Monster You Made Chords
Suy Nghi Trong Anh Chords
100 In A 55 Tabs
Hero 1 Tabs
Hero 2 Tabs
Somebody Like You Tabs
Stepping Stone 1 Tabs
Trenches Intro Tabs
100 In A 55 Ukulele


Song lyrics



↑ Back to top | Tablatures and chords are parodies/interpretations of the original songs. You may use it for private study, scholarship, research or language learning purposes only
© 2014 AZChords.com Contact us | Privacy policy | DMCA | Add/correct tabs | Request tabs | Top 50 tabs