» » »

Pop Evil, Monster You Made Tabs (ver.3)

Artists:  A B C D E F G H I J K L M N O P Q R S T U V W X Y Z # 

Monster You Made Tabs (ver.3)

Pop Evil Tabs
 Rating:
4/5 (7 votes)
Monster You Made lessons Tabs too difficult? Try these video lessons and learn fast
1
                ACOUSTIC LIVE VERSION
-Listen to the song for timing
Intro:

D-------------------------------------------------|
A-------------------------------------------------|
F-------------------------------------------------|
C---------2-0---0-------9--------9----------------|  Repeat
G-------0-------------7---7----6---6--------------|
C-----4-------0--0--7---------6-------------------|

Pre Chorus:

D---------------------------------------|
A---------------------------------------|
F---------------------------------------|
C--------0------2-2-2-------------------|
G---------------2-2-2-------------------|
C-----0----0----2-2-2-------------------|


Chorus:

D-------------------------------------------------|
A---------------------------------FILL------------|
F-----------7-----------9-------------------------|
C-----4-----7-----7-----9-------------------------| 
G-----4-----5-----7-----7--------7-5-4-0----------|
C-----4-----------7-------------------------------|

2nd Verser Fill

D-9----9----9----9----9----9----12---12---------|
A---10---10---10---10---10---10---10----10------|
F-----------------------------------------------|
C-----------------------------------------------| 
G-----------------------------------------------|
C-----------------------------------------------|


Bridge:

D---------------------------------------|
A---------------------------------------|
F---------------------------------------|
C-----7---7--7--2-----------------------|
G-----5---4--4--2-----------------------|
C------------4--2-----------------------|
            
Submit corrections

comments powered by Disqus
↑ Back to top | Pop Evil Tabs for Monster You Made. Lyrics for acoustic guitar and electric guitar. 1 Tablatures and chords are parodies/interpretations of the original songs. You may use it for private study, scholarship, research or language learning purposes only