» » »

Everywhere Tabs (ver.2)

Artists:  A B C D E F G H I J K L M N O P Q R S T U V W X Y Z # 

Everywhere Tabs (ver.2)

Polaris
Rating:
0/5 (0 votes)

Hard to play? Try these video lessons and learn fast.
                (Intro)
Chords:

[G]        [D]        [C]        [G]
-3-        -2-        -0-        -x-|
-3-        -3-        -1-        -3-|
-0- (x6)   -2-  (x6)  -0-  (x6)  -0-| (x6)
-0-        -0-        -2-        -0-|
-2-        ---        -3-        -2-|
-3-        ---        -0-        -3-|


------------------------------------------|
-3-3----1--3-1-0----3--3-1----3-5-7-8-----|
0-0--0-0--0-0-0--0-0--0-0--0-0-0-0-0------|
------------------------------------------|
------------------------------------------|
------------------------------------------|

--------------------------------------------------|
-0-3--3-1--1-3-3-1-0---0-3--3-1---1-3-3-5-5-7-7-8-|
0-0--0-0--0-0---0-0---0-0--0-0---0-0---0---0------|
--------------------------------------------------|
--------------------------------------------------|
--------------------------------------------------|

Chords (x1)

----------------------------------------------------------|
-0-3-3--3-1-1--1-3-3-1-0---0-3-3--3-1-1---1-3-3-5-5-7-7-8-|
0-0-0--0-0-0--0-0---0-0---0-0-0--0-0-0---0-0---0---0------|
----------------------------------------------------------| (this includes
----------------------------------------------------------|  some picking 
----------------------------------------------------------|  from guitar 2)

--------------------------------------------------|
--0-3-3--5-5-7-7-8--------------------------------|
-0-0---0----0-------------------------------------|
--------------------------------------------------|
--------------------------------------------------|
--------------------------------------------------|

Chords (x2)

 then chord C: (x1),(x2)... (x1), (x2)

----------------------------------------------------------|
-0-3-3--3-1-1--1-3-3-1-0---0-3-3--3-1-1---1-3-3-5-5-7-7-8-|  (x2)
0-0-0--0-0-0--0-0---0-0---0-0-0--0-0-0---0-0---0---0------|
----------------------------------------------------------| (this includes
----------------------------------------------------------|  some picking 
----------------------------------------------------------|  from guitar 2)

--------------------------------------------------|
--0-3-3--5-5-7-7-8--------------------------------|
-0-0---0----0-------------------------------------|
--------------------------------------------------|
--------------------------------------------------|
--------------------------------------------------|

Chords (x4)

at end c chord is slowly strummed [x1,x2]  Pattern is done four times.

then:

-7-
-0-
-0-
---
---
---
            
Hard to play? Try these video lessons and learn fast. | Correct




comments powered by Disqus
↑ Back to top | Tablatures and chords are parodies/interpretations of the original songs. You may use it for private study, scholarship, research or language learning purposes only