» » »

Hey Sandy Adventures Of Pete And Pete Tabs (ver.1)

Artists:  A B C D E F G H I J K L M N O P Q R S T U V W X Y Z # 

Hey Sandy Adventures Of Pete And Pete Tabs (ver.1)

Polaris
Rating:
0/5 (0 votes)

Hard to play? Try these video lessons and learn fast.
                This was the theme song to the show "The Adventures of Pete and Pete." Its a great song and it's about as easy as they come. 


Intro

E---------------------------------------------------------------------
B---------------------------------------------------------------------
G---------------------------------------------------------------------
D---7-6-4-------------------------------------------------------------
A---5-4-2-------------------------------------------------------------
E---------------------------------------------------------------------

Verse

E--------------------------------------------------------------------
B--------------------------------------------------------------------
G--------------------------------------------------------------------x4
D--7-77--11-11-11--4-44--2-22----------------------------------------
A--7-77--11-11-11--4-44--2-22----------------------------------------
E--5-55--9--9--9---2-22--0-00----------------------------------------

Chorus

E---------------------------------------------------------------------
B---------------------------------------------------------------------
G---------------------------------------------------------------------
D---7-6-4-----------7-6-4---------------------------------------------
A---5-4-2---2-22----5-4-2---2-22--------------------------------------
E-----------0-00------------0-00--------------------------------------


Solo


e|--10-9--------------------------------------------10-9-----|
B|-------10---10--10--10-10--9--9--9---7--7--7--7--------10--|x2
G|-----------------------------------------------------------|

e|--------------------------10--10--10-10--9--9--9-----------|
B|--10--10--10-10--9--9--9-----------------------------------|
G|-----------------------------------------------------------|

e|-----------------------------------------------------------|
B|--10---10--10--10-10--9--9--9---7--7--7--7---9--9--9-------|
G|-----------------------------------------------------------|

Intro
Verse 
chorus
verse
chorus
solo
            
Hard to play? Try these video lessons and learn fast. | Correct




comments powered by Disqus
↑ Back to top | Tablatures and chords are parodies/interpretations of the original songs. You may use it for private study, scholarship, research or language learning purposes only