» » »

Artist Rendering Of Me Bass tabs (ver.1)

Artists:  A B C D E F G H I J K L M N O P Q R S T U V W X Y Z # 

Artist Rendering Of Me Bass tabs (ver.1)

Poison The Well
Rating:
0/5 (0 votes)

Hard to play? Try these video lessons and learn fast.
                \ = slide
~ = let ring
X = palm mute note

Part 1 
(Guitar plays inbetween each pair of notes)
G|-------------------------------|
D|-------------------------------|
A|-99-99-99-88-88-88-77-99-99-99-|
E|-------------------------------|
Then...("with all my said unsaids")
G|-----|--------------------------|
D|-----|--------------------------|
A|-----|--------------------------|
E|-5/1-|-0--0-0---0-0-0-00-00-0-0-|

Part 2
G|-------------------|
D|-------------------|
A|-------------------|
E|-7-3-5-22-00000000-|
            XXXXXXXX

Part 3
(Not 100% sure about this, its close though.)
G|-------------------|
D|-------------------|
A|---------------3-1-|
E|-0~---2-2-0~-------|

Part 4
(i could never swallow...)
G|---------|
D|---------|
A|---------|
E|-000-000-|
   xxx xxx

Part 5
G|------------------------------------|
D|------------------------------------|
A|-10------10--------9-7777-9-7777----|
E|----0000------0000---------------77-|

Part 6 
(slow part)
G|----------|
D|----------|
A|-----3~---|
E|-0~-------|

Part 7
G|-------------------------|
D|-------------------------|
A|-44455554445555----------|
E|----------------00000000-|

Part 4 again

Part 8 (ending)
G|--------------------------|
D|--------------------------|
A|--------------------------|
E|-0--0-0---0-0-0-00-00-0-0-|
            
Hard to play? Try these video lessons and learn fast. | Correct




comments powered by Disqus
↑ Back to top | Tablatures and chords are parodies/interpretations of the original songs. You may use it for private study, scholarship, research or language learning purposes only