>
 >
Artists Rendering Of Me 1

Artists Rendering Of Me 1 Guitar Tabs

Poison The Well - Artists Rendering Of Me 1 chords, tabs, tablatures, lyrics

Guitar lessons | Add/correct | Request | Top 50 tabs Artists:  A B C D E F G H I J K L M N O P Q R S T U V W X Y Z 0-9

Artists Rendering Of Me 1 Guitar Tabs – Poison The Well

CD, Sheet music, Poster

Do you like Artists Rendering Of Me 1? Share with your friends now
Bass TabsTabsTabs v2
Tuning: Drop D

>>>I was just going to correct the other tab of this song, but there were too many 
so I re-did it all. Idk if the original is in Drop D, but I put it into Drop D for you guys.


|--------------------------------------------------------------------|
|--------------------------------------------------------------------|
|--------------------------------------------------------------------|
|-77-----77------77----66-----66------66----33------77------77----66-|
|---5555----5555----55----5555---5555----55----5555----5555----55----|
|--------------------------------------------------------------------|
    ****    ****    **    ****   ****    **    ****    ****    **


|------------|---------|-------------|-------|
|------------|---------|-----(x7)----|-------|
|------------|---------|-------------|-------|
|----5----1--|--0-0-00-|-0-0-000-0-0-|-0-0-0-|
|----5----1--|--0-0-00-|-0-0-000-0-0-|-0-0-0-|
|----5----1--|--0-0-00-|-0-0-000-0-0-|-0-0-0-|
                * * **   * * *** * *   * * *

|----------------------------------------------|
|------------------------(x4)------------------|
|----------------------------------------------|
|-5-0-8-7--1---000-000-000-000-000-000-000-000-|
|-5-0-8-7--1---000-000-000-000-000-000-000-000-|
|-5-0-8-7--1---000-000-000-000-000-000-000-000-|
               *** *** *** *** *** *** *** ***

|---------------------------|
|---------------------------|
|---------------------------|
|--0--0-0-1---1-1-0---0-0-1-|
|--0--0-0-1---1-1-0---0-0-1-|
|--0--0-0-1---1-1-0---0-0-1-|


|------------------------------------------------|
|---------------------(x3)-----------------------|
|------------------------------------------------|
|-000--000-000--000-000--000-000-000-000-000-000-|
|-000--000-000--000-000--000-000-000-000-000-000-|
|-000--000-000--000-000--000-000-000-000-000-000-|
  ***  *** ***  *** ***  *** *** *** *** *** ***

|---------------------------------------|
|-----------------(x4)------------------|
|---------------------------------------|
|---------------------7-----------------|
|-8-------8-------8------7------7-----7-|
|----0000----0000----------0000---0000--|
     ****    ****          ****   ****

RHYTHM GUITAR:
   CLEAN
|---------|      |--------|---------------------------------|
|---------|      |--(x3)--|---------------------------------|
|------2--|      |--------|---------------------------------|
|----3--3-|      |--0---8-|-0---0-0-0-0-0-0-0-0-0-0-0-0-0-0-|
|--1------|      |--0---8-|-0---0-0-0-0-0-0-0-0-0-0-0-0-0-0-|
|---------|      |--0---8-|-0---0-0-0-0-0-0-0-0-0-0-0-0-0-0-|
                                * * * * * * * * * * * * * *

|----------------------------------------------------------------|
|------------------------------(x4)------------------------------|
|----------------------------------------------------------------|
|--4-4-4-5-5-5-5-5-4-4-4-5-5-5-5-0-0-0-0-0-0-0-0-0-0-0-0-0-0-0-0-|
|--0-0-0-0-0-0-0-0-0-0-0-0-0-0-0-0-0-0-0-0-0-0-0-0-0-0-0-0-0-0-0-|
|--------------------------------0-0-0-0-0-0-0-0-0-0-0-0-0-0-0-0-|
                                   * * * * * * * * * * * * * * *


|-------------------------------------------------------|
|-------------------------------------------------------|
|-000----000-000---000-000----000-000---000-000-000-000-|
|-000----000-000---000-000----000-000---000-000-000-000-|
|-000----000-000---000-000----000-000---000-000-000-000-|
  ***    *** ***   *** ***    *** ***   *** *** *** ***

|-----------(x4)-------|------------(x4)----------|---|
|----------------------|--------------------------|---|
|-0-0-0-0-0-0-0-0-0-00-|0-0-0-0-0-0-0-0-0-00-9/10-|-0-|
|-0-0-0-0-0-0-0-0-0-00-|0-0-0-0-0-0-0-0-0-00-7/8--|-0-|
|-0-0-0-0-0-0-0-0-0-00-|0-0-0-0-0-0-0-0-0-00------|-0-|
  * * * *   * * * * **  * * * *   * * * * **
______________
* = Palm Mute
/ = Slide Up





Comments


Popular Poison The Well tabs & chords
For A Bandaged Iris Bass Tabs
Grain Of Salt Bass Tabs
My Mirror No Longer Reflects Bass Tabs
Nerdy Bass Tabs
Not Within Arms Length Bass Tabs
Turn Down Elliot 2 Bass Tabs
Ghostchant 1 Tabs
Meeting Again For The First Time Tabs
Nerdy 2 Tabs
Rings Of Corona Tabs


Song lyrics



↑ Back to top | Tablatures and chords are parodies/interpretations of the original songs. You may use it for private study, scholarship, research or language learning purposes only
© 2014 AZChords.com Contact us | Privacy policy | DMCA | Add/correct tabs | Request tabs | Top 50 tabs