» » »

Playjerise, Safe To Say Tabs (ver.1)

Artists:  A B C D E F G H I J K L M N O P Q R S T U V W X Y Z # 

Safe To Say Tabs (ver.1)

Playjerise Tabs
 Rating:
4.2/5 (5 votes)
Safe To Say lessons Tabs too difficult? Try these video lessons and learn fast
1
                (Intro)
Safe to Say – Playjerise                  (Capo 3rd Fret)

e|--2h3---x----------x-----------x--2---------x-------|
b|------3-x--3-------x-----------x--3---------x-------|
g|--------x--0-------x—-2p0------x------------x-------|
d|--2-----x----------x-----------x--0---------x-------|
a|--------x--3-------x-----------x------------x-------|
e|--------x----------x--3--------x------------x-------|

e|--2h3---x----------x-----------x------------x-------|
b|------3-x--3-------x-----------x--3---------x-------|
g|--------x--0-------x—-2p0------x--0---------x-------|
d|--2-----x----------x-----------x------------x-------|
a|--------x--3-------x-----------x------------x-------|
e|--------x----------x--3--------x--3---------x-------|

e|--2h3---x----------x-----------x--2---------x-------|
b|------3-x--3-------x-----------x--3---------x-------|
g|--------x--0-------x—-2p0------x------------x-------|
d|--2-----x----------x-----------x--0---------x-------|
a|--------x--3-------x-----------x------------x-------|
e|--------x----------x--3--------x------------x-------|

e|---2---3------3---3-------------|
b|-----------3------3-------------|
g|-----------0------0-------------|
d|---2--------------2-------------|
a|-----------3------3-------------|
e|--------------------------------|

H= Hammer on
X= Palm Mute
            
Submit corrections

comments powered by Disqus
↑ Back to top | Playjerise Tabs for Safe To Say. Lyrics for acoustic guitar and electric guitar. 1 Tablatures and chords are parodies/interpretations of the original songs. You may use it for private study, scholarship, research or language learning purposes only