» » »

Playjerise, Safe To Say Tabs (ver.2)

Artists:  A B C D E F G H I J K L M N O P Q R S T U V W X Y Z # 

Safe To Say Tabs (ver.2)

Playjerise Tabs
 Rating:
4.3/5 (6 votes)
Safe To Say lessons Tabs too difficult? Try these video lessons and learn fast
1
                Safe to Say – Playjerise                  (Capo 3rd Fret)


Hi guys.  I have filled this out based on the intro on here.  This is for only the main
used in this song.  A lot of it is pretty similar – just get the basic structure and
there are just a few variations.  Let me know if you have any changes for this or tab 


Intro

e|--2h3---x----------x-----------x--2---------x-------|
b|------3-x--3-------x-----------x--3---------x-------|
g|--------x--0-------x—-2p0------x------------x-------|
d|--2-----x----------x-----------x--0---------x-------|
a|--------x--3-------x-----------x------------x-------|
e|--------x----------x--3--------x------------x-------|

e|--2h3---x----------x-----------x------------x-------|
b|------3-x--3-------x-----------x--3---------x-------|
g|--------x--0-------x—-2p0------x--0---------x-------|
d|--2-----x----------x-----------x------------x-------|
a|--------x--3-------x-----------x------------x-------|
e|--------x----------x--3--------x--3---------x-------|


Verse 1

e|--2h3---x----------x-----------x--2---------x-------|
b|------3-x--3-------x-----------x--3---------x-------|
g|--------x--0-------x—-2p0------x------------x-------|
d|--2-----x----------x-----------x--0---------x-------|
a|--------x--3-------x-----------x------------x-------|
e|--------x----------x--3--------x------------x-------|

e|--2h3---x----------x-----------x------------x-------|
b|------3-x--3-------x-----------x--3---------x-------|
g|--------x--0-------x—-2p0------x--0---------x-------|
d|--2-----x----------x-----------x------------x-------|
a|--------x--3-------x-----------x------------x-------|
e|--------x----------x--3--------x--3---------x-------|

e|--2h3---x----------x-----------x--2-3-------x----------x----3-3---|
b|------3-x--3-------x-----------x--3---------x--3-------x--3-------|
g|--------x--0-------x—-2p0------x------------x--0-------x--0-------|
d|--2-----x----------x-----------x--0---------x----------x----------|
a|--------x--3-------x-----------x------------x--3-------x--3-------|
e|--------x----------x--3--------x------------x----------x----------|


Chorus 1

e|--2h3---x----------x-----------x--2-3-------|
b|--------x--3-------x-----------x--3---------|
g|--------x--0-------x—-2p0------x------------|
d|--2-----x----------x-----------x--0---------|   x2
a|--------x--3-------x-----------x------------|
e|--------x----------x--3--------x------------|

e|--2h3---x----------x-----------x--2-3-------|
b|--------x--3-------x-----------x--3---------|
g|--------x--0-------x—-2p0------x------------|
d|--2-----x----------x-----------x--0---------|
a|--------x--3-------x-----------x------------|
e|--------x----------x--3--------x------------|

e|--------x----3-----x-----------x--2-3-------|
b|--3-----x--3-------x--3--------x--3---------|
g|--0-----x--0-------x—-0--------x------------|
d|--------x----------x-----------x--0---------|
a|--3-----x--3-------x--3--------x------------|
e|--------x----------x-----------x------------|

e|--2h3---x----------x-----------x--2---------|
b|--------x--3-------x-----------x--3---------|
g|--------x--0-------x—-2p0------x------------|
d|--2-----x----------x-----------x--0---------|
a|--------x--3-------x-----------x------------|
e|--------x----------x--3--------x------------|

e|--2h3---x----------x-----------x------------|
b|--------x--3-------x-----------x--3---------|
g|--------x--0-------x—-2p0------x--0---------|
d|--2-----x----------x-----------x------------|
a|--------x--3-------x-----------x------------|
e|--------x----------x--3--------x--3---------|


Verse 2

e|--2h3---x----------x-----------x--2---------x-------|
b|------3-x--3-------x-----------x--3---------x-------|
g|--------x--0-------x—-2p0------x------------x-------|
d|--2-----x----------x-----------x--0---------x-------|
a|--------x--3-------x-----------x------------x-------|
e|--------x----------x--3--------x------------x-------|

e|--2h3---x----------x-----------x------------x-------|
b|--------x--3-------x-----------x--3---------x-------|
g|--------x--0-------x—-2p0------x--0---------x-------|
d|--2-----x----------x-----------x------------x-------|
a|--------x--3-------x-----------x------------x-------|
e|--------x----------x--3--------x--3---------x-------|

e|--2h3---x----------x-----------x--2-3-------x----------x----3-----|
b|------3-x--3-------x-----------x--3---------x--3-------x--3-------|
g|--------x--0-------x—-2p0------x------------x--0-------x--0-------|
d|--2-----x----------x-----------x--0---------x----------x----------|
a|--------x--3-------x-----------x------------x--3-------x--3-------|
e|--------x----------x--3--------x------------x----------x----------|


Chorus 2

e|--2h3---x----------x-----------x--2---------|
b|--------x--3-------x-----------x--3---------|
g|--------x--0-------x—-2p0------x------------|
d|--2-----x----------x-----------x--0---------|   x3
a|--------x--3-------x-----------x------------|
e|--------x----------x--3--------x------------|

e|--------x----------x-----------x--2---------|
b|--3-----x--3-------x--3--------x--3---------|
g|--0-----x--0-------x—-0--------x------------|   x2
d|--------x----------x-----------x--0---------|
a|--3-----x--3-------x--3--------x------------|
e|--------x----------x-----------x------------|

e|--2h3---x----------x-----------x--2---------|
b|--------x--3-------x-----------x--3---------|
g|--------x--0-------x—-2p0------x------------|
d|--2-----x----------x-----------x--0---------|   x2
a|--------x--3-------x-----------x------------|
e|--------x----------x--3--------x------------|


Bridge

e|--2h3---x----3-----x----3------x--2-3-------|
b|--------x--3-------x--3--------x--3---------|
g|--------x--0-------x—-0--------x------------|
d|--2-----x----------x-----------x--0---------|   x2
a|--------x--3-------x-----------x------------|
e|--------x----------x--3--------x------------|

e|--2h3---x----------x-----------x--2---------|
b|--------x--3-------x-----------x--3---------|
g|--------x--0-------x—-2p0------x------------|
d|--2-----x----------x-----------x--0---------|   x3
a|--------x--3-------x-----------x------------|
e|--------x----------x--3--------x------------|

e|--2h3---x----3-----x-----------x--2---------|
b|--------x--3-------x--3--------x--3---------|
g|--------x--0-------x—-0--------x------------|
d|--2-----x----------x-----------x--0---------|
a|--------x--3-------x-----------x------------|
e|--------x----------x--3--------x------------|

e|---------------------------------|
b|-----3-------3---------------3---|
g|---0-----0---------0-----0-------|
d|-2---------2---2-----0-----0---0-|   x2
a|-------3-------------------------|
e|-----------------3-----2---------|

e|-------------------------2-3-x-|
b|-----3-------3-----------3---x-|
g|---0-----0---------0---------x-|
d|-2---------2---2-----0-------x-|
a|-------3---------------------x-|
e|-----------------3-----2-----x-|

e|--------x----------x-----------x--2-3-------|
b|--3-----x--3-------x--3--------x--3---------|
g|--0-----x--0-------x—-0--------x------------|
d|--------x----------x-----------x--0---------|
a|--3-----x--3-------x--3--------x------------|
e|--------x----------x-----------x------------|


Final Chorus/Outro

e|--2h3---x----------x-----------x--2---------|
b|--------x--0-------x-----------x--3---------|
g|--------x--0-------x—-2p0------x------------|
d|--2-----x----------x-----------x--0---------|
a|--------x--3-------x-----------x------------|
e|--------x----------x--3--------x------------|

e|--2h3---x----------x-----------x--2-2-------|
b|--------x--0-------x-----------x--3-3-------|
g|--------x--0-------x—-2p0------x------------|
d|--2-----x----------x-----------x--0-0-------|
a|--------x--3-------x-----------x------------|
e|--------x----------x--3--------x------------|

e|--2h3---x----------x-----------x--2-3-------|
b|--------x--0-------x-----------x--3---------|
g|--------x--0-------x—-2p0------x------------|
d|--2-----x----------x-----------x--0---------|
a|--------x--3-------x-----------x------------|
e|--------x----------x--3--------x------------|

e|--------x----3-----x-----------x--2-3-------|
b|--3-----x--3-------x--3--------x--3---------|
g|--0-----x--0-------x—-0--------x------------|
d|--------x----------x-----------x--0---------|  x2
a|--3-----x--3-------x-----------x------------|
e|--------x----------x--3--------x------------|

e|-------3-------------3-------2-3-|
b|-----3---3---3-----3-------3---3-|
g|---0-------0-----0-------0-----0-|
d|---------------------------------|
a|-3-------------------------------|
e|---------------3-------2---------|
            
Submit corrections

comments powered by Disqus
↑ Back to top | Playjerise Tabs for Safe To Say. Lyrics for acoustic guitar and electric guitar. 1 Tablatures and chords are parodies/interpretations of the original songs. You may use it for private study, scholarship, research or language learning purposes only