>
 >
Safe To Say

Safe To Say Guitar Tabs

Playjerise - Safe To Say chords, tabs, tablatures, lyrics

Guitar lessons | Add/correct | Request | Top 50 tabs Artists:  A B C D E F G H I J K L M N O P Q R S T U V W X Y Z 0-9

Safe To Say Guitar Tabs – Playjerise

CD, Sheet music, Poster

Do you like Safe To Say? Share with your friends now
Tabs
Safe to Say  Playjerise                  (Capo 3rd Fret)


Hi guys.  I have filled this out based on the intro on here.  This is for only the main
used in this song.  A lot of it is pretty similar  just get the basic structure and
there are just a few variations.  Let me know if you have any changes for this or tab 


Intro

e|--2h3---x----------x-----------x--2---------x-------|
b|------3-x--3-------x-----------x--3---------x-------|
g|--------x--0-------x-2p0------x------------x-------|
d|--2-----x----------x-----------x--0---------x-------|
a|--------x--3-------x-----------x------------x-------|
e|--------x----------x--3--------x------------x-------|

e|--2h3---x----------x-----------x------------x-------|
b|------3-x--3-------x-----------x--3---------x-------|
g|--------x--0-------x-2p0------x--0---------x-------|
d|--2-----x----------x-----------x------------x-------|
a|--------x--3-------x-----------x------------x-------|
e|--------x----------x--3--------x--3---------x-------|


Verse 1

e|--2h3---x----------x-----------x--2---------x-------|
b|------3-x--3-------x-----------x--3---------x-------|
g|--------x--0-------x-2p0------x------------x-------|
d|--2-----x----------x-----------x--0---------x-------|
a|--------x--3-------x-----------x------------x-------|
e|--------x----------x--3--------x------------x-------|

e|--2h3---x----------x-----------x------------x-------|
b|------3-x--3-------x-----------x--3---------x-------|
g|--------x--0-------x-2p0------x--0---------x-------|
d|--2-----x----------x-----------x------------x-------|
a|--------x--3-------x-----------x------------x-------|
e|--------x----------x--3--------x--3---------x-------|

e|--2h3---x----------x-----------x--2-3-------x----------x----3-3---|
b|------3-x--3-------x-----------x--3---------x--3-------x--3-------|
g|--------x--0-------x-2p0------x------------x--0-------x--0-------|
d|--2-----x----------x-----------x--0---------x----------x----------|
a|--------x--3-------x-----------x------------x--3-------x--3-------|
e|--------x----------x--3--------x------------x----------x----------|


Chorus 1

e|--2h3---x----------x-----------x--2-3-------|
b|--------x--3-------x-----------x--3---------|
g|--------x--0-------x-2p0------x------------|
d|--2-----x----------x-----------x--0---------|   x2
a|--------x--3-------x-----------x------------|
e|--------x----------x--3--------x------------|

e|--2h3---x----------x-----------x--2-3-------|
b|--------x--3-------x-----------x--3---------|
g|--------x--0-------x-2p0------x------------|
d|--2-----x----------x-----------x--0---------|
a|--------x--3-------x-----------x------------|
e|--------x----------x--3--------x------------|

e|--------x----3-----x-----------x--2-3-------|
b|--3-----x--3-------x--3--------x--3---------|
g|--0-----x--0-------x-0--------x------------|
d|--------x----------x-----------x--0---------|
a|--3-----x--3-------x--3--------x------------|
e|--------x----------x-----------x------------|

e|--2h3---x----------x-----------x--2---------|
b|--------x--3-------x-----------x--3---------|
g|--------x--0-------x-2p0------x------------|
d|--2-----x----------x-----------x--0---------|
a|--------x--3-------x-----------x------------|
e|--------x----------x--3--------x------------|

e|--2h3---x----------x-----------x------------|
b|--------x--3-------x-----------x--3---------|
g|--------x--0-------x-2p0------x--0---------|
d|--2-----x----------x-----------x------------|
a|--------x--3-------x-----------x------------|
e|--------x----------x--3--------x--3---------|


Verse 2

e|--2h3---x----------x-----------x--2---------x-------|
b|------3-x--3-------x-----------x--3---------x-------|
g|--------x--0-------x-2p0------x------------x-------|
d|--2-----x----------x-----------x--0---------x-------|
a|--------x--3-------x-----------x------------x-------|
e|--------x----------x--3--------x------------x-------|

e|--2h3---x----------x-----------x------------x-------|
b|--------x--3-------x-----------x--3---------x-------|
g|--------x--0-------x-2p0------x--0---------x-------|
d|--2-----x----------x-----------x------------x-------|
a|--------x--3-------x-----------x------------x-------|
e|--------x----------x--3--------x--3---------x-------|

e|--2h3---x----------x-----------x--2-3-------x----------x----3-----|
b|------3-x--3-------x-----------x--3---------x--3-------x--3-------|
g|--------x--0-------x-2p0------x------------x--0-------x--0-------|
d|--2-----x----------x-----------x--0---------x----------x----------|
a|--------x--3-------x-----------x------------x--3-------x--3-------|
e|--------x----------x--3--------x------------x----------x----------|


Chorus 2

e|--2h3---x----------x-----------x--2---------|
b|--------x--3-------x-----------x--3---------|
g|--------x--0-------x-2p0------x------------|
d|--2-----x----------x-----------x--0---------|   x3
a|--------x--3-------x-----------x------------|
e|--------x----------x--3--------x------------|

e|--------x----------x-----------x--2---------|
b|--3-----x--3-------x--3--------x--3---------|
g|--0-----x--0-------x-0--------x------------|   x2
d|--------x----------x-----------x--0---------|
a|--3-----x--3-------x--3--------x------------|
e|--------x----------x-----------x------------|

e|--2h3---x----------x-----------x--2---------|
b|--------x--3-------x-----------x--3---------|
g|--------x--0-------x-2p0------x------------|
d|--2-----x----------x-----------x--0---------|   x2
a|--------x--3-------x-----------x------------|
e|--------x----------x--3--------x------------|


Bridge

e|--2h3---x----3-----x----3------x--2-3-------|
b|--------x--3-------x--3--------x--3---------|
g|--------x--0-------x-0--------x------------|
d|--2-----x----------x-----------x--0---------|   x2
a|--------x--3-------x-----------x------------|
e|--------x----------x--3--------x------------|

e|--2h3---x----------x-----------x--2---------|
b|--------x--3-------x-----------x--3---------|
g|--------x--0-------x-2p0------x------------|
d|--2-----x----------x-----------x--0---------|   x3
a|--------x--3-------x-----------x------------|
e|--------x----------x--3--------x------------|

e|--2h3---x----3-----x-----------x--2---------|
b|--------x--3-------x--3--------x--3---------|
g|--------x--0-------x-0--------x------------|
d|--2-----x----------x-----------x--0---------|
a|--------x--3-------x-----------x------------|
e|--------x----------x--3--------x------------|

e|---------------------------------|
b|-----3-------3---------------3---|
g|---0-----0---------0-----0-------|
d|-2---------2---2-----0-----0---0-|   x2
a|-------3-------------------------|
e|-----------------3-----2---------|

e|-------------------------2-3-x-|
b|-----3-------3-----------3---x-|
g|---0-----0---------0---------x-|
d|-2---------2---2-----0-------x-|
a|-------3---------------------x-|
e|-----------------3-----2-----x-|

e|--------x----------x-----------x--2-3-------|
b|--3-----x--3-------x--3--------x--3---------|
g|--0-----x--0-------x-0--------x------------|
d|--------x----------x-----------x--0---------|
a|--3-----x--3-------x--3--------x------------|
e|--------x----------x-----------x------------|


Final Chorus/Outro

e|--2h3---x----------x-----------x--2---------|
b|--------x--0-------x-----------x--3---------|
g|--------x--0-------x-2p0------x------------|
d|--2-----x----------x-----------x--0---------|
a|--------x--3-------x-----------x------------|
e|--------x----------x--3--------x------------|

e|--2h3---x----------x-----------x--2-2-------|
b|--------x--0-------x-----------x--3-3-------|
g|--------x--0-------x-2p0------x------------|
d|--2-----x----------x-----------x--0-0-------|
a|--------x--3-------x-----------x------------|
e|--------x----------x--3--------x------------|

e|--2h3---x----------x-----------x--2-3-------|
b|--------x--0-------x-----------x--3---------|
g|--------x--0-------x-2p0------x------------|
d|--2-----x----------x-----------x--0---------|
a|--------x--3-------x-----------x------------|
e|--------x----------x--3--------x------------|

e|--------x----3-----x-----------x--2-3-------|
b|--3-----x--3-------x--3--------x--3---------|
g|--0-----x--0-------x-0--------x------------|
d|--------x----------x-----------x--0---------|  x2
a|--3-----x--3-------x-----------x------------|
e|--------x----------x--3--------x------------|

e|-------3-------------3-------2-3-|
b|-----3---3---3-----3-------3---3-|
g|---0-------0-----0-------0-----0-|
d|---------------------------------|
a|-3-------------------------------|
e|---------------3-------2---------|





Comments


Popular Playjerise tabs & chords
Believe It Or Not Chords
Obvious To Know Chords
Old Enough Chords
Belive It Or Not Intro Tabs
Secret Tabs
Settle With Me Tabs
Way Back Home Tabs
Believe It Or Not Ukulele
Ocean Of Mine Ukulele
Old Enough Ukulele


Song lyrics



↑ Back to top | Tablatures and chords are parodies/interpretations of the original songs. You may use it for private study, scholarship, research or language learning purposes only
© 2014 AZChords.com Contact us | Privacy policy | DMCA | Add/correct tabs | Request tabs | Top 50 tabs