» » »

Cross The Line Tabs (ver.2)

Artists:  A B C D E F G H I J K L M N O P Q R S T U V W X Y Z # 

Cross The Line Tabs (ver.2)

Playjerise
Rating:
3/5 (2 votes)

Hard to play? Try these video lessons and learn fast.
                This is played with capo 3rd fret, and i'm pretty certain theres a tiny delay/reverb on the lead 
guitar. But it sounds fine without doing anything fancy to it.  

Intro:

e|---18------------------13-----------18---------|
B|-15--15-13-13-11-10-11----11-----15---15-13-13-|
G|-----------------------------------------------|      
D|-----------------------------------------------|
A|-----------------------------------------------|
E|-----------------------------------------------|

e|----------13-----------------------------------|
B|-11-10-11----11-10-----------------------------|
G|-----------------------------------------------|      
D|-----------------------------------------------|
A|-----------------------------------------------|
E|-----------------------------------------------|

All of that is played twice through. The chords that are played
behind the intro are:

     C     G     Em     D/F     G
e|---3-----3------3------3------3----------------|
B|---3-----3------3------3------3----------------|
G|-----------------------2-----------------------|      
D|---2------------2------------------------------|
A|---3-----x------2-------------x----------------|
E|---------3-------------2------3----------------|


Lyrics...
   G               C
I've been waiting so long
   Em          D/F            C
But now it's my time in the spot light
          C
i know i'm in your hands
  Em          D/F            C
but i'm falling in the traps they make
   Em                              C
do you know does any one know the mystery we can
 G               D/F           
make it out cause we have help
   Em                              C
do you know does anyone know the mystery we can
 G             D/F 
make it out cause we have help
          C
do you cross the line
   G              C
I've been waiting for you
   Em         D/F           C
to feel you and know you're alive
           C
and i know i'm in your hands
   Em          D/F          C
but i'm falling in the traps they make
   Em          D/F          C
i'm falling in the traps they make
   Em                              C
do you know does any one know the mystery we can
 G             D/F
make it out cause we have help
   Em          D/F                 C
do you know does anyone know the mystery we can
 G            D/F 
make it out cause we have help
          C
do you cross the line

Solo:
e|-17h18p17-------------------------13-----------|
B|----------18-15-15-18--11-13b13-11--11---------|
G|-----------------------------------------------|      
D|-----------------------------------------------|
A|-----------------------------------------------|
E|-----------------------------------------------|

e|-----------------------------------------------|
B|-----------------------6/8-6-------------------|
G|-12-10-12----------7-9-------7-5---------------|      
D|------------6h7h8-----------------8------------|
A|-----------------------------------------------|
E|-----------------------------------------------|

(The Solo is not relevant to the capo, rather to the normal tuning of the guitar,
But you'll find it doesn't matter if the capo stays on there)
Second round on the solo stop at 12-10-12. Then throw in a Em7 at the end. Also! The chords 
behind the solo are just that of the intro. It sounds fantastic with someone backing you up.



 C                       G       D/F             C
You taught me everything and i want you to know I'll
                G        D/F
stay with you until our lives grow old

Same Chord progression, you get the idea.

Sha nah nah nah nah nah nah nah nah nah nah! Do you know
does anyone know

do you know does any one know the mystery we can
make it out cause we have help
do you know does anyone know the mystery?

Just finish on C and you're all good. Thats about it. 
            
Hard to play? Try these video lessons and learn fast. | Correct




comments powered by Disqus
↑ Back to top | Tablatures and chords are parodies/interpretations of the original songs. You may use it for private study, scholarship, research or language learning purposes only