» » »

Playjerise, Cross The Line Tabs (ver.1)

Artists:  A B C D E F G H I J K L M N O P Q R S T U V W X Y Z # 

Cross The Line Tabs (ver.1)

Playjerise Tabs
 Rating:
4/5 (4 votes)
Cross The Line lessons Tabs too difficult? Try these video lessons and learn fast
                (Intro)
e|---18----------------------18----------------------|
B|-15--15--13--------18----15--15--13--------18------|
G|-------17--15-14-15--15--------17--15-14-15--15-14-|
D|---------------------------------------------------|
A|---------------------------------------------------|
E|---------------------------------------------------|

e|---18----------------------18-----------------------------|
B|-15--15--13--------18----15--15---15-15-15-15-15-15-15-15-|
G|-------17--15-14-15--15--------17-------------------------|
D|----------------------------------------------------------|
A|----------------------------------------------------------|
E|----------------------------------------------------------|


e|---18----------------------18----------------------|
B|-15--15--13--------18----15--15--13--------18------|
G|-------17--15-14-15--15--------17--15-14-15--15-14-|
D|---------------------------------------------------|
A|---------------------------------------------------|
E|---------------------------------------------------|


e|---18----------------------18-------------------------|
B|-15--15--13--------18----15--15--13--------18---------|
G|-------17--15-14-15--15--------17--15-14-15--15-14-15-|
D|------------------------------------------------------|
A|------------------------------------------------------|
E|------------------------------------------------------|




Chords INTRO (capo 3)
e|-3--3--3--0--0-|
B|-3--3--3--0--0-|
G|-0--0--0--0--0-|
D|-2--0--0--2--0-|
A|-3--2--2--2--2-|
E|----3-----0--2-|
            
Submit corrections

comments powered by Disqus
↑ Back to top | Playjerise Tabs for Cross The Line. Lyrics for acoustic guitar and electric guitar. Tablatures and chords are parodies/interpretations of the original songs. You may use it for private study, scholarship, research or language learning purposes only