» » »

Now Im Free Tabs (ver.1)

Artists:  A B C D E F G H I J K L M N O P Q R S T U V W X Y Z # 

Now Im Free Tabs (ver.1)

Planetshakers
Rating:
0/5 (0 votes)

Tabs too difficult? Try these video lessons and learn fast.
                Heya, this is my first tab, just put up cause i realised there was no other tabs for 
this song, i learnt this by ear, sorry if its not exact but it is pretty close.
Intro:
e|---------------------------------------------------------------|
B|---------------------------------------------------------------|
G|---------------------------------------------------------------|
D|---------------------3---------------------5-3-----------------|
A|-3-h5-3-h5-3-h5-3-h5---3-h5-3-h5-3-h5-3-h5---------------------|
E|---------------------------------------------------------------|

Verse:
The verse is just strumming, chords for the verse are D5 C G/B C

Pre-Chorus
Just chords, A Bm G and then on "we are free" it goes E G

Chorus:
Just chords to, D A C G then on "and the world won't stop us" it goes Em D/F# G C

Instumental:
Riff 1
e|---------------------------------------------------------------|
B|---------------------------------------------------------------|
G|---------------------------------------------------------------|
D|-------3-/7-------7-5-3-------3-/7-------7-5-3-----------------|
A|-5-3-5------5-3-5-------5-3-5------5-3-5-----------------------|
E|---------------------------------------------------------------|
Riff 2
e|---------------------------------------------------------------|
B|---------------------------------------------------------------|
G|---------------------------------------------------------------|
D|-------3-5-------5-3-------------------------------------------|
A|---3-5-------3-5-----------------------------------------------|
E|-1---------3---------------------------------------------------|

Play riff 1 twice then Riff 2 once, then repeat riff 1 once more

Bridge:
In the bridge it is the same as the instrumental except it has a little hook in it that 
is played instead of playing the last 6 beats of riff 1 the last time. I havent bothered 
learning the hook because it is only played once in the song.

After a couple of time going through the chorus it swiches to chords and not the rif, 
the chords are Dm then when it hits "your love is why im here" it goes F G then Dm again



| /  slide up
| h  hammer-on
            
Tabs too difficult? Try these video lessons and learn fast.


comments powered by Disqus
↑ Back to top | Tablatures and chords are parodies/interpretations of the original songs. You may use it for private study, scholarship, research or language learning purposes only