>
 >
Let Praise Awaken

Let Praise Awaken Guitar Tabs

Planetshakers - Let Praise Awaken chords, tabs, tablatures, lyrics

Guitar lessons | Add/correct | Request | Top 50 tabs Artists:  A B C D E F G H I J K L M N O P Q R S T U V W X Y Z 0-9

Let Praise Awaken Guitar Tabs – Planetshakers

CD, Sheet music, Poster

Do you like Let Praise Awaken? Share with your friends now
ChordsTabsUkulele
Standard Tuning, EADGBE
124BPM in 4/4 Time
Key of Dm (with modulation, as per usual -_-)


Legend:
* = Pinch Harmonic
. = Palm muted
/ = Slide Down
\ = Slide Up
< = Build it Up
> = Bring it Down
h = Hammer On
p = Pull Off

Intro:
This part is mainly synth, kick drum and bass. The synth and bass follow the chords for
the verse which is Bb, Dm, C. This repeats a few times before the guitar comes in.
Listen to the track for the exact timings.

Verse 1:
This is pretty much the exact same format as the intro. Bb  Dm - C


Verse 2:
This is where the guitars come in and it all goes off
    C    Dm   Bb
e|----------------------|
B|----------------------|
G|--3-3--7-7--5--/------|
D|--3-3--7-7--5--/------| X3
A|--1-1--5-5--3--/------|
E|----------------------|

Last line of the verse hold the C and slide up to the Dm for the Pre-chorus
    C    Dm   Bb
e|----------------------|
B|----------------------|
G|--3-3--7-7--5--\------|
D|--3-3--7-7--5--\------|
A|--1-1--5-5--3--\------|
E|----------------------|


Pre-Chorus:
Simple chugging
        Dm                C              Bb                  C
e|-----------------------------------------------------------------------------|
B|-----------------------------------------------------------------------------|
G|-7-7-7-7-7-7-7-7--5-5-5-5-5-5-5-5--3-3-3-3-3-3-3-3--5-5-5-5-5-5-5-5----------|
D|-7-7-7-7-7-7-7-7--5-5-5-5-5-5-5-5--3-3-3-3-3-3-3-3--5-5-5-5-5-5-5-5------3-2-|
A|-5-5-5-5-5-5-5-5--3-3-3-3-3-3-3-3--1-1-1-1-1-1-1-1--3-3-3-3-3-3-3-3--3h5-----|
E|-----------------------------------------------------------------------------|
     . .   . .   .    . .   . .   .    . .   . .   .    . .   . .   .
        Dm                C                G                 C
e|------------------------------------------------------------------------|
B|------------------------------------------------------------------------|
G|-7-7-7-7-7-7-7-7--5-5-5-5-5-5-5-5-------------------3-3-3-3-3-3-3-3-----|
D|-7-7-7-7-7-7-7-7--5-5-5-5-5-5-5-5--5-5-5-5-5-5-5-5--3-3-3-3-3-3-3-3-----|
A|-5-5-5-5-5-5-5-5--3-3-3-3-3-3-3-3--5-5-5-5-5-5-5-5--1-1-1-1-1-1-1-1-----|
E|-----------------------------------3-3-3-3-3-3-3-3----------------------|
     . .   . .   .    . .   . .   .    . .  <<<<<<<<<<  




Chorus:
   C    Dm    Bb   F/A
e|-----------------------|
B|-----------------------|
G|-5-5--7-7---3-3--------|
D|-5-5--7-7---3-3--3-3---| X4
A|-3-3--5-5---1-1--3-3---|
E|-----------------5-5---|


Tag: (H  E Y,  H  E  Y)

   C  Dm Bb
e|----------|
B|----------|
G|-5--7--3--|
D|-5--7--3--| X2
A|-3--5--1--|
E|----------|


Instrumental: I usually play this with a Wah, and a few ghost notes here and there. Just
cause I can, and cause I like it that way ;)

         F          Ab      Bb
e|-------------------------------------|
B|-------------------------------------|
G|-------------------------------------|
D|-----3-3-----3------6-6------8-----/-| X4
A|-----------------------------------/-|
E|-1-1-----1-1----4-4------6-6----6--/-|

Riff continues through the Bridge too, but if you have more than one guitarist, then
make him chug the chords out.

          F            Ab      Bb
e|-------------------------------------|
B|-------------------------------------|
G|-------------------------------------|
D|--3-3-3-3-3-3-3-3--6-6-6-6--8-8-8-8--|
A|--3-3-3-3-3-3-3-3--6-6-6-6--8-8-8-8--|
E|--1-1-1-1-1-1-1-1--4-4-4-4--6-6-6-6--|
    . . . . . . . .  . . . .  . . . .

After the bridge theres some form of interlude. It follows the same chords, F, Ab, Bb.
Basic strumming, simple stuff. If you have the ability to shred out some cool solo, then
go for it. If not, then play the F, Ab and B in octaves, but up the octave as shown below.

    F  Ab Bb
e|--------------|
B|--6-\-9-\-11--|
G|--x-\-x-\-x---|
D|--3-\-6-\-8---|
A|--------------|
E|--------------|

Or
    F  Ab Bb
e|--------------|
B|--------------|
G|--------------|
D|--3-\-6-\-8---|
A|--x-\-x-\-x---|
E|--1-\-4-\-6---|



This is a genuinely easy song. Dont worry if you cant get the timings perfect, Just
practice along with the mp3. You can either buy it from Planetshakers.com or iTunes, or
and stuff like that, but feel free to create your own arrangement to fit your needs.

The tracks aren't free. Cheapest is about US $10, but it's well worth the cost. You get
a track with no vocals, but you get some mint sounding synths, some phat guitars,
possibly drums depending on what you buy, as well as click tracks and all that cool 
stuff to help you not only learn the song, but also play it in church depending on your 
setup in
terms of running trax/in ear monitors. A lot of work goes into making these, and 
personally I think that 10 bucks is pretty cheap! So support my friend and I as we keep making 
trax for people :D It's fun, but very time consuming.


general, or tabs. Or just about anything really. I'm open to suggestions, questions,
and most requests depending on my schedule.
Cheers,
Christian Heinze-Rowney





Comments


Popular Planetshakers tabs & chords
Do It Again 1 Chords
Hosanna 1 Chords
I Believe Chords
King Of All 1 Chords
Stand Chords
Supernatural Chords
The Anthem 6 Chords
This Love 1 Tabs
Nothing Is Impossible Ukulele
Your Name Brings Healing To Me Ukulele


Song lyrics



↑ Back to top | Tablatures and chords are parodies/interpretations of the original songs. You may use it for private study, scholarship, research or language learning purposes only
© 2014 AZChords.com Contact us | Privacy policy | DMCA | Add/correct tabs | Request tabs | Top 50 tabs