» » »

Everyone Tabs (ver.2)

Artists:  A B C D E F G H I J K L M N O P Q R S T U V W X Y Z # 

Everyone Tabs (ver.2)

Planetshakers
Rating:
0/5 (0 votes)

Hard to play? Try these video lessons and learn fast.
                -----------------------------------------------------------------------------
                                                 Everyone - Planetshakers
-----------------------------------------------------------------------------

Tuning: Standard

e|--------------------------------------------------------------------------|
B|--------------------------------------------------------------------------|
G|--------------------------------------------------------------------------|
D|--------------------------------------------------------------------------|
A|-\12-10~~-10-9~~-7-5--x3----5-3-5/7-5--x2--5-3-0--------------------------|
E|--------------------------------------------------------------------------|

   {Palm Mute-------------------}       {------------------------}
e|--------------------------------------------------------------------------|
B|--------------------------------------------------------------------------|
G|--------------------------------------------------------------------------|
D|--7-------3------5------7------5577----7-------3------5------10-----------|
A|--7-x16---3-x16--5-x16--7-x16--5577----7-x16---3-x16--5-x16--10-x16-------|
E|--5-------1------3------5------3355----5-------1------3------8------------|

CHORUS
e|--------------------------------------------------------------------------|
B|--------------------------------------------------------------------------|
G|--------------------------------------------------------------------------|
D|--77-----------33----------55---------------------------------------------|
A|--77------3-5--33-----3-5--55-----3-5--5-5-3-5/7-5------------------------|
E|--55--3-5------11-3-5------33-3-5-----------------------------------------|

{INTRO}

{VERSE 2} - Same chords but different strumming pattern. With this riff.
e|--------------------------------------------------------------------------|
B|--------------------------------------------------------------------------|
G|--------------------------------------------------------------------------|
D|--------------------------------------------------------------------------|
A|---3-2---3-2--------------------------------------------------------------|
E|-------3-----3-5----------------------------------------------------------|

{CHORUS}

{INTRO}

BRIDGE  {Listen to strum pattern}
e|--------------------------------------------------------------------------|
B|--------------------------------------------------------------------------|
G|--------------------------------------------------------------------------|
D|--7-----12-----3-----5----6-----------------------------------------------|
A|--7-x16-12-x16-3-x16-5-x8-6-x8--------------------------------------------|
E|--5-----10-----1-----3----4-----------------------------------------------|

{CHORUS}

{INTRO}

LYRICS
-----------------------------------------------------------------------------
This is the sound of a generation 
This is our song, it's a declaration 
We will arise 
With a burning passion 
All for your name Jesus 

Everyone, everyone get up on your feet and sing 
'Cause we have the Victory in Jesus Name 
Let's Celebrate 
Everyone, everyone get up on your feet and sing 
'Cause we have the Victory in Jesus Name 
Let's Celebrate 
Let's Celebrate 

This is the sound of a generation 
And this is out song, it's a declaration 
We will arise 
With a burning passion 
All for your name Jesus 

Everyone, everyone get up on your feet and sing 
'Cause we have the Victory in Jesus Name 
Let's Celebrate 
Oh everyone, everyone get up on your feet and sing 
'Cause we have the Victory in Jesus Name 
Let's Celebrate 
Let's Celebrate 

We dance 'cause we are free 
We have the victory 
In your Authority 
You set us Free 
You set us Free 

We dance 'cause we are free 
We have the victory 
In your Authority 
You set us Free 
You set us Free 

We dance 'cause we are free 
We have the victory 
In your Authority 
You set us Free 
You set us Free 

Everyone, everyone get up on your feet and sing 
'Cause we have the Victory in Jesus Name 
Let's Celebrate 
Oh everyone, everyone get up on your feet and sing 
'Cause we have the Victory in Jesus Name 
Let's Celebrate 
Let's Celebrate

************************************

| /   slide up
| \   slide down
| h   hammer-on
| p   pull-off
| ~   vibrato
| +   harmonic
| x   Mute note
| b   Bend
| pb  Pre-bend
| br  Bend release
| pbr Pre-bend release
| brb Bend release bend

************************************
            
Hard to play? Try these video lessons and learn fast. | Correct




comments powered by Disqus
↑ Back to top | Tablatures and chords are parodies/interpretations of the original songs. You may use it for private study, scholarship, research or language learning purposes only