» » »

Pink Floyd, One Of My Turns Tabs (ver.2)

Artists:  A B C D E F G H I J K L M N O P Q R S T U V W X Y Z # 

One Of My Turns Tabs (ver.2)

Pink Floyd Tabs
 Rating:
4/5 (4 votes)
One Of My Turns lessons Tabs too difficult? Try these video lessons and learn fast
                -------------------------------------------------------------------------------
                                                One Of My Turns (Solo) - Pink Floyd
-------------------------------------------------------------------------------

Tuning: Standard

e|-----------------------------------------------8-----------10----------13--|
B|--3br---3~----------6br---6~--------6--x--8/10----x--10/12----x--13/15-----|
G|-----------------5------------x-5/7----------------------------------------|
D|-------------5h7-----------------------------------------------------------|
A|---------------------------------------------------------------------------|
E|---------------------------------------------------------------------------|

e|-15-15-15-15br-13~\--|
B|---------------------|
G|---------------------|
D|---------------------|
A|---------------------|
E|---------------------|

e|----------------------------------12-12--12-12--12-12----------------------|
B|--3br---3~----------6br---6~--x--13--13b-13-13b-13-13b-10-13-13b-13-11~-13\|
G|-----------------5---------------------------------------------------------|
D|-------------5h7-----------------------------------------------------------|
A|---------------------------------------------------------------------------|
E|---------------------------------------------------------------------------|


************************************

| /   slide up
| \   slide down
| h   hammer-on
| ~   vibrato
| x   Mute note
| br  Bend release

************************************
            
Submit corrections

comments powered by Disqus
↑ Back to top | Pink Floyd Tabs for One Of My Turns. Lyrics for acoustic guitar and electric guitar. Tablatures and chords are parodies/interpretations of the original songs. You may use it for private study, scholarship, research or language learning purposes only