» » »

Pink Floyd, One Of My Turns Bass tabs (ver.1)

Artists:  A B C D E F G H I J K L M N O P Q R S T U V W X Y Z # 

One Of My Turns Bass tabs (ver.1)

Pink Floyd Tabs
Rating:
0/5 (0 votes)
One Of My Turns lessons Tabs too difficult? Try these video lessons and learn fast
                
Bass enters at 2:14

    “Run to…”
G|-----------------------------------------------------
D|-----------------------------------------------------
A|--6-6---------6-6--------3---5---5-----5--3-------3h5
E|------6-----------6----6---------------------5-------

    “Don’t look…”
G|----------------------------------------------------------
D|----------------------------------------------------------
A|--6-6---------3---6-6--------3----5---5----5--3--5-----3h5
E|------6-----6---------6----6------------------------------

    “Would you…”
G|----------------------------------------------------------
D|----------------------------------------------------------
A|--6-6---------3---6-6--------3----5---5----5--3--5------5-
E|------6-----6---------6----6------------------------------

  “Would u like to learn…”
G|-------------------------------------------------
D|-------------------------------------------------
A|-6---6---6------6---6---6-------5---5----5--3--5-
E|-------------------------------------------------

  “Oh, no!”
G|-----------------------------------------
D|-----------------------------------------
A|--5---5------5---5------------3---3------
E|---------------------3---3------------3—

  Guitar Solo
G|---------------------------------------------
D|---------------------------------------------
A|--6----------6------------3--5---5---5---5---
E|-----6---6------6---6---6--------------------

G|--------------------------------------------------------
D|--------------------------------------------------------
A|--6----------6------------3--5---5---5---5---3---3---3--
E|-----6---6------6---6---6-------------------------------

 “Would u like to call..”
G|-------------------------
D|-------------------------
A|-------1-----------------
E|-------------------------

G|---------------
D|--------------- let the last note
A|---------------      ring
E|---1-2-3-------

“Why are you running away?”

Continues to “Don’t leave me now”
            

comments powered by Disqus
↑ Back to top | Pink Floyd Bass for One Of My Turns. Lyrics for acoustic guitar and electric guitar. Tablatures and chords are parodies/interpretations of the original songs. You may use it for private study, scholarship, research or language learning purposes only