>
 >
Any Colour You Like 2

Any Colour You Like 2 Bass Tabs

Pink Floyd - Any Colour You Like 2 chords, tabs, tablatures, lyrics

Guitar lessons | Add/correct | Request | Top 50 tabs Artists:  A B C D E F G H I J K L M N O P Q R S T U V W X Y Z 0-9

Any Colour You Like 2 Bass Tabs – Pink Floyd

CD, Sheet music, Poster

Do you like Any Colour You Like 2? Share with your friends now
Bass TabsBass Tabs v2Bass Tabs v3Bass Tabs v4ChordsTabsTabs v2Ukulele
0:00

G---|--------------5h7-----|-------------------------|--------7-----------|---
D---|----------------------|--------5--------5h7-----|--------------------|---
A---|--5-------------------|-------------------------|--5-----------------|---
E---|----------------------|--3----------------------|--------------------|---


G---------------------------|--------7--------5h7-----|-----------------------
D---------5-----------------|-------------------------|--------5--------5h7---
A---------------------2-----|--5----------------------|-----------------------
E---3--------------3--------|-------------------------|--3--------------------


G------|--------7--------7--------|--------------------------|--------7-------
D------|--------------------7-----|--------5-----------5-----|----------------
A------|--5-----------------------|--------------------------|--5-------------
E------|--------------------------|--3-----------3--3--------|----------------


G------5h7-----|-------------------------------|--------7-----------7-----|---
D--------------|--------5----------------------|--------------------------|---
A--------------|-----------------------2h3-----|--5--------------5--------|---
E--------------|--3-----------3--3--3----------|--------------------------|---


G---------------------------------|--------7-----------7\---|-----------------
D---------5-----5-----------------|-------------------------|--------5--------
A------------------5--------2-----|--5-----------5----------|-----------------
E---3--------------------3--------|-------------------------|--3--------------


G---------------|--------7-----------7-----|-----------------------------|----
D---5-----7-----|--------------------------|--------5-----5--------------|----
A---------------|--5-----------5-----------|-----------------------2--3--|----
E---------------|--------------------------|--3--------------3-----------|----


G---------7-----------7\---|--------------------------|--------7--------5h7---
D--------------------------|--------5--------5h7p5h7--|-----------------------
A---5--------------5-------|--------------------------|--5--------------------
E--------------------------|--3-----------------------|-----------------------


G------|-----------------------------|--------7-----------|-------------------
D------|--------5--------------------|--------------------|--------5----------
A------|--------------5--------2--3--|--5-----------------|-------------------
E------|--3--------------3-----------|--------------------|--3----------------


G-----------------|--------7--------7--------|--------------------------------
D------------5/7--|--------------------7-----|--------5--------------5/7------
A------5----------|--5-----------------------|--------------------5-----------
E---3-------------|--------------------------|--3-----------3-----------------


    1:19
G---|--------7-----------|-------------------------|--------7--------------|--
D---|--------------------|--------5--------5h7-----|--------------------6--|--
A---|--5-----------------|-------------------------|--5--------------------|--
E---|--------------------|--3----------------------|-----------------------|--


G--------------------------|--------7-----------|---------------------|-------
D---5-----5--------5h7-----|--------------------|--------5-----(5)h7--|-------
A--------------------------|--5-----------------|---------------------|--5----
E--------------------------|--------------------|--3------------------|-------


G------7-----------|-------------------------|--------7-----------|-----------
D------------------|--------5--------5h7-----|--------------------|--------5--
A------------------|-------------------------|--5-----------------|-----------
E------------------|--3----------------------|--------------------|--3--------

                                                        1:58
G------------|--------7-----------|---------------------|--------7--------7---
D------------|--------------------|--------5-----5h6h7--|--------------7------
A------------|--5-----------------|---------------------|--5------------------
E------------|--------------------|--3------------------|---------------------


G------|-------------------|--------7-----5h7-----|---------------------------
D------|--------5------/12\|----------------------|--------5-----------5--7---
A------|-------------------|--5-------------------|---------------------------
E------|--3----------------|----------------------|--3-----------3------------


G---|--------7-------------7--------|--------------------------|--------7-----
D---|-------------------------7-----|--------5-----------------|--------------
A---|--5-----------3/5--------------|-----------------2--3-----|--5-----------
E---|-------------------------------|--3-----------3-----------|--------------


G---------------7-----|-------------------------|--------7--------5h7-----|---
D---7--------7--------|--------5-----------5/7--|-------------------------|---
A------5--------------|-------------------------|--5----------------------|---
E---------------------|--3-----------3--3-------|-------------------------|---


G---------------------------|--------7--------5h7-----|---------------/12-----
D---------5--------5--7-----|-------------------------|--------5--------------
A---------------------------|--5----------------------|-----------------------
E---3-----------------------|-------------------------|--3--------------------


G---12-----10p9-----|--------7--------5h7-----|--------------------------|----
D-------------------|-------------------------|--------5-----------------|----
A-------------------|--5----------------------|--------------------2--3--|----
E-------------------|-------------------------|--3--------------3--------|----


G---------7--------(5)h7-----(5)h7--|--------------------------|--------7-----
D-----------------------------------|--------5-----------------|--------------
A---5-------------------------------|--------------------3--4--|--5-----------
E-----------------------------------|--3--------------3--------|--------------


G------5h7-----|----------------------|--------7--------------7--|------------
D--------------|--------5--------5h7--|--------------------------|--5---------
A--------------|----------------------|--5--------------5--------|--------5---
E--------------|--3-------------------|--------------------------|------------

                   3:00
G------------------|--------7-----------7\---|-------------------------|------
D------------------|-------------------------|--------5-----------5/7--|------
A---------2-----3--|--5-----------5--5-------|-------------------------|--5---
E---3--------------|-------------------------|--3-----------3--3-------|------


G------7--------5h7-----|--------------------------|--------3-----------3-----
D-----------------------|--------5-----------5-----|--------------------------
A-----------------------|--------------------------|--1-----------1--1--------
E-----------------------|--3-----------3--3--------|--------------------------


G---|--------------14--14\---|--------8-----------8--8--|---------------------
D---|------------------------|--------------------------|---------------------
A---|--0---------------------|--6-----------6-----------|--8-----------3------
E---|------------------------|--------------------------|---------------------





Comments


Popular Pink Floyd tabs & chords
Any Colour You Like Bass Tabs
Pow R Toc H Bass Tabs
Sorrow Live Bass Tabs
Dogs Chords
Empty Spaces Chords
Comfortably Numb Tabs
Dark Side Of The Moon Tabs
Saucer Full Of Secrets Tabs
Not Now John Ukulele
The Gold Its In The Ukulele


Song lyrics



↑ Back to top | Tablatures and chords are parodies/interpretations of the original songs. You may use it for private study, scholarship, research or language learning purposes only
© 2014 AZChords.com Contact us | Privacy policy | DMCA | Add/correct tabs | Request tabs | Top 50 tabs