>
 >
Any Colour You Like 2

Any Colour You Like 2 Guitar Tabs

Pink Floyd - Any Colour You Like 2 chords, tabs, tablatures, lyrics

Guitar lessons | Add/correct | Request | Top 50 tabs Artists:  A B C D E F G H I J K L M N O P Q R S T U V W X Y Z 0-9

Any Colour You Like 2 Guitar Tabs – Pink Floyd

CD, Sheet music, Poster

Do you like Any Colour You Like 2? Share with your friends now
Bass TabsBass Tabs v2Bass Tabs v3Bass Tabs v4ChordsTabsTabs v2Ukulele
               *Any Colour You Like (Gilmour, Mason, Wright)*
                             Pink Floyd
                     The Dark Side Of The Moon


Guitar Solo:
|--10b--------------10------13-------------------13----------|
|--13---------------13b-----13-------------------13--13------|
|---------------------------12b------------------12b-12b10---|
|------------------------------------------------------------|
|------------------------------------------------------------|
|------------------------------------------------------------|
 
|--------------------------------------10--------------10----|
|-10b-----------------12-10b-------------------10------10----|
|-10b-----------------12-10b---------------------------------|
|----12-10------12-12--------------10------------------------|
|--------------------------------12--------------------------|
|-----------------------------/10----------------------------|
 
|------------------------------------------------------------|
|----12----12----12-12----12------12b----b12x----12bx---12b--|
|----12----12----12-12----12------12b----b12x----12bx---12b--|
|------------------------------------------------------------|
|------------------------------------------------------------|
|------------------------------------------------------------|
 
|------------------------------------------------------------|
|----12b--12-----------12-10b--12-12-12-10b------------------|
|----12b--12-----12-12-12-10b--12-12-12-10b------------------|
|---------------------------------------------12p10----10--12|
|---------------------------------------------------12-------|
|------------------------------------------------------------|
 
|---------13--13---------------------------------------------|
|-----0---13--13----------------10-10/12-12---10-----12------|
|---------12b-12----------------10-10/12-12---10-----12------|
|-------------------------------10-10/12-12---10-----12------|
|------------------------------------------------------------|
|------------------------------------------------------------|
 
|------------------------------------13---------------------------|
|-10-10/12-12---10----12---13b13--13---13x--13-13-13-------10-----|
|-10-10/12-12---10----12----------------------------12--12---10b--|
|-10-10/12-12---10----12----------------------------------------12|
|-----------------------------------------------------------------|
|-----------------------------------------------------------------|
 
|------------------------------------------10-------13-13-13---------|
|---------------10b-------12------------10---13-------------13x------|
|---------------10b-------12-10b-----12b-----------------------------|
|-10-10-12-12------12--x-x-------------------------------------------|
|--------------------------------------------------------------------|
|--------------------------------------------------------------------|
 
|-----------------------------------------------------------------|
|-13-13-13-13\12-0-12\10-0-10\8-0-8\6-0---6\5-0-5\3-0-3\1x1p0-----|
|-------------------------------------------------------------2p0-|
|----------------------------------------------------------------2|
|-----------------------------------------------------------------|
|-----------------------------------------------------------------|
 
|---------------------10---------------------------------------------|
|----------------x----10-12-x------x-12b--12b-12b-12p10b----10-------|
|----------------x-------12-x------x-12b--12b-12b-12p10b-12-10-------|
|--2/4----5-5--------------------------------------------------12----|
|--------------------------------------------------------------------|
|--------------------------------------------------------------------|
 
|--------10-------------------------------------------------------|
|-x--------10-13-13b-13b-b13--13-10---13---13-12---12\10----10----|
|-x-12b------------------------------------------12------10----10-|
|-----------------------------------------------------------------|
|-----------------------------------------------------------------|
|-----------------------------------------------------------------|
 
|-----------------------------------------------------------------|
|---------------12-12-12-(12)12-12----12-(10)12----12----12----12-|
|---------------12-12-12--12-12-12----12-(10)12----12----12----12-|
|-10--12-12-12----------------------------------------------------|
|-----------------------------------------------------------------|
|-----------------------------------------------------------------|
 
|--------------------------------------------------------------------|
|----12b--12brp10-12-10-12(10)------------------------------10-------|
|----12b--12brp10-12-10-12-10-------------------------------10-------|
|-----------------------12-10-12\10----------10--10h12-12------------|
|-----------------------------12\10-----10/12------------------------|
|--------------------------------------------------------------------|
 
|-13-13-13-----13-13-13-------------------------------------------|
|---------13b----------13b---13----13--13-13--13-13--13-13--13-13-|
|-----------------------------------------------------------------|
|-----------------------------------------------------------------|
|-----------------------------------------------------------------|
|-----------------------------------------------------------------|
 
|----------------10-----------------------------------------------|
|13-13--13-13--13--13-13--13-13--13-13--13-13-13-13---------------|
|-----------------------------------------------------------------|
|-------------------------------------------------------9-10-11-12|
|-----------------------------------------------------------------|
|-----------------------------------------------------------------|
 
|--------------------------------------------------------------------|
|--------------------------------------------------------------------|
|--------------------------------------------------------------------|
|--10--9--9-10-11-12-9-10-11-12-9-10-11---12--10-11-12--10-11-12--10-|
|--------------------------------------------------------------------|
|--------------------------------------------------------------------|
 
|------------------------------------------------------|
|--------------------(12)10---12-x-x-10~~x-12-x-12-10--|
|---------------------12-10---12-x-x-10~~x-12-x-12-10--|
|-11-12--9-10-11-12---------12-------------------------|
|------------------------------------------------------|
|------------------------------------------------------|
 
|--------10--------------------------------------------------------|
|--------13----12----10-----------12---12-10b----------10--12b--13b|
|--------10--------12--10--(10)---12---12-10b---13-b13--10-12b-----|
|---(12)-12--------------10------------------12--------------------|
|------------------------------------------------------------------|
|------------------------------------------------------------------|
 
|--13----10---------------------------------------------------10---|
|----13r-13-13----12----10----------------------------------10--10-|
|-----------------10-12-10-10----------------10-------12-12b-------|
|-------------------------------10h12--12-12-----------------------|
|------------------------------------------------------------------|
|------------------------------------------------------------------|
 
|------------------------------------------------|
|-13b--13b-13b-10----10--------------------------|
|-----------------12----10-----------------10-12-|
|--------------------------10-10------10h12------|
|------------------------------------------------|
|------------------------------------------------|
 
|-------------------------------------------------|
|--11--10-8--8-10-11-10h11p10--10p8-----8---------|
|-----------------------------------10------------|
|-------------------------------------------------|
|-------------------------------------------------|
|-------------------------------------------------|





Comments


Popular Pink Floyd tabs & chords
Sheep 1 Bass Tabs
Shine On You Crazy Diamond Part I-v Bass Tabs
Shine On Chords
Comfortably Numb 1 Tabs
Country Song Tabs
Run Like Hell Tabs
Shine On You Crazy Diamond Part 5 Tabs
Signs Of Life Tabs
Time Easy And 100 Correct Tabs
Wish You Were Here Ver Tabs


Song lyrics



↑ Back to top | Tablatures and chords are parodies/interpretations of the original songs. You may use it for private study, scholarship, research or language learning purposes only
© 2014 AZChords.com Contact us | Privacy policy | DMCA | Add/correct tabs | Request tabs | Top 50 tabs