» » »

Phish, Character Zero Tabs (ver.3)

Artists:  A B C D E F G H I J K L M N O P Q R S T U V W X Y Z # 

Character Zero Tabs (ver.3)

Phish Tabs
 Rating:
4.3/5 (6 votes)
Character Zero lessons Tabs too difficult? Try these video lessons and learn fast
                #



This was mostly right, except for a couple notes.
I substituted a 5h2 and it sounds about right.

Try it and see if it sounds a little better.

Riff 1
E |------------------------------------------------|
B |------------------------------3-(let ring)------|
G |------------------------------------------------|
D |-------2p0-5-2-0-2----5h2-----------------------|
A |------------------------------------------------|
E |--3p0-------------------------------------------|


Riff 2
E |------------------------------------------------|
B |------------------------------2-(let ring)------|
G |------------------------------------------------|
D |-------2p0-5-2-0-2----5h2-----------------------|
A |------------------------------------------------|
E |--3p0-------------------------------------------|


Riff 1  I was taught a month ago
Riff 2  To bide my time and take it slow
Riff 1  But then I learned just yesterday
Riff 2  To rush and never waste the day
Riff 1  Now I'm convinced the whole day long
Riff 2  That all I learn is always wrong
Riff 1  And things are true that I forget
Riff 2  Well no one taught that to me yet
            
Submit corrections

comments powered by Disqus
↑ Back to top | Phish Tabs for Character Zero. Lyrics for acoustic guitar and electric guitar. Tablatures and chords are parodies/interpretations of the original songs. You may use it for private study, scholarship, research or language learning purposes only