» » »

Character Zero Tabs (ver.2)

Artists:  A B C D E F G H I J K L M N O P Q R S T U V W X Y Z # 

Character Zero Tabs (ver.2)

Phish
Rating:
5/5 (3 votes)

Tabs too difficult? Try these video lessons and learn fast.
                Phish
"Character Zero"

E-----------------------------------|
B--------------------------------3--|
G-----------------------------------|
D------------2-0----5--2-0-2-5-2----|
A----------------2------------------|
E--3^(1/2)-0------------------------|


                                 I was taught a month ago


E-----------------------------------|
B--------------------------------2--|
G-----------------------------------|
D------------2-0----5--2-0-2-5-2----|
A----------------2------------------|
E--3^(1/2)-0------------------------|


                                 To bide my time and take it slow


But then I learned just yesterday
To rush and never waste the day
Now I'm convinced the whole day long
That all I learn is always wrong
And things are true that I forget
But no one taught that to me yet


E------------------------------|
B--2-2-2-2-2-2-2-2-2-----------|
G--2-2-2-2-2-2-2-2-2-----------|
D--2-2-2-2-2-2-2-2-2-----------|
A--0-0-0-0-0-0-0-0-0-----------|
E---------------------3^(1/2)--|


   E  G5    A   D5
E---0----------------|
B---0---3----2---3---|
G---1---0----2---2---|
D---2---5----2---0---|
A---2--------0-------|
E---0----------------|


E                  G5
I ought to see the man Mulcahy

A                  D5
I ought to see the man Mulcahy

I was taught a month ago
to bide my time and take it slow.
But then I learned just yesterday
To rush and never waste the day.
Now I'm convinced the whole day long
That all I learn is always wrong.
And things are true that I forget
But no one taught that to me yet.


E--12------12---------------------------------------------12------|
B--15^(17)-15^(17)-15-12----10-12------12------12-----15--15^(17--|
G------------------------14----14^(16)-14^(16)-14^(16)------------|
D-----------------------------------------------------------------|
A-----------------------------------------------------------------|
E-----------------------------------------------------------------|
            
Tabs too difficult? Try these video lessons and learn fast.


comments powered by Disqus
↑ Back to top | Tablatures and chords are parodies/interpretations of the original songs. You may use it for private study, scholarship, research or language learning purposes only