>
 >
Moth

Moth Guitar Tabs

People In Planes - Moth chords, tabs, tablatures, lyrics

Guitar lessons | Add/correct | Request | Top 50 tabs Artists:  A B C D E F G H I J K L M N O P Q R S T U V W X Y Z 0-9

Moth Guitar Tabs – People In Planes

CD, Sheet music, Poster

Do you like Moth? Share with your friends now
Tabs
-----------------------------------------------------------------
-----------------------------------------------------------------
Tuning: Drop D

This is what I just sort of figured out, feel free to play around
with it. I'm sure there are better ways to play it.

-Intro/Verse-
Guitar 1
E|---------------------------------------------------------------|
B|---------------------------------------------------------------|
G|---------------------------------------------------------------|
D|----------12------7---9-------------------12-------7---9-------|
A|------9-------9------------(4x)-------9--------9----------(2x)-|
D|--9-------------------------------5----------------------------|

	Just listen to the song for the phrasing.


Guitar 2 comes in the 3rd time through Guitar 1's phrase
E|---------------------------------------------------------------|
B|---------------------------------------------------------------|
G|---11------11--9h11p9----------11-----12/14---12---7---9---7--8|
D|---------------------------------------------------------------|
A|-----------------------(3x)------------------------------------|
D|---------------------------------------------------------------|
	Not so sure about this, but it sounds OK. Just listen for
	timing...

-Pre-chorus-
Guitar 1
E|---------------------------------------------------------------|
B|---------------------------------------------------------------|
G|---------------------------------------------------------------|
D|--9------7------4------9------9------7------2------9-----------|
A|--9------7------4------9------9------7------2------9-----------|
D|--9------7------4------9------9------7------2------9-----------|

E|---------------------------------------------------------------|
B|---------------------------------------------------------------|
G|---------------------------------------------------------------|
D|--9------7------4------9------9------7------2-2-2-2-2---7779---|
A|--9------7------4------9------9------7------2-2-2-2-2---7779---|
D|--9------7------4------9------9------7------2-2-2-2-2---7779---|


-Chorus-
Guitar 1
E|---------------------------------------------------------------|
B|---------------------------------------------------------------|
G|---------------------------------------------------------------|
D|--9------7------4---7779------9------7------2------------------|
A|--9------7------4---7779------9------7------2------------------|
D|--9------7------4---7779------9------7------2------------------|


Back to the -Intro/Verse- riff, in the break play this in 16th 
notes:

E|---------------------------------------------------------------|
B|---------------------------------------------------------------|
G|--7/9-9-9-9-9-9-9-9-9-9-9-9-7h9p7------------------------------|
D|---------------------------------------------------------------|
A|---------------------------------------------------------------|
D|---------------------------------------------------------------|

-Verse 2-
Guitar 3(?), 2nd time through
E|---------------------------------------------------------------|
B|---------------------------------------------------------------|
G|---------7-------------7---------------------------------------|
D|---9--9-----9------7h9-----------------------------------------|
A|---------------7h9----------(8x)-------------------------------|
D|---------------------------------------------------------------|


-Bridge-
Guitar 1
E|---------------------------------------------------------------|
B|---------------------------------------------------------------|
G|---------------------------------------------------------------|
D|--9------7---4------4---2------7---9---------------------------|
A|--9------7---4------4---2------7---9--------(2x)---------------|
D|--9------7---4------4---2------7---9---------------------------|

Guitar 2 distortion
E|---------------------------------------------------------------|
B|---------------------------------------------------------------|
G|---------------------------------------------------------------|
D|-----7b-----7b-------------7b------9/11------------------------|
A|--9------9--------(3x)--9------9-------------------------------|
D|---------------------------------------------------------------|


Repeat -Pre-chorus- into -Chorus-


-Heavy ending-
Guitar 1
E|------------------------------------------------------------------|
B|------------------------------------------------------------------|
G|------------------------------------------------------------------|
D|-9-9-9-9-4-4-4-4-5-5-5-5-7-7-7-7-2-2-xxx2--2-xxxx2-2-xxx2--2-xxxx-|
A|-9-9-9-9-4-4-4-4-5-5-5-5-7-7-7-7-2-2-xxx2--2-xxxx2-2-xxx2--2-xxxx-|
D|-9-9-9-9-4-4-4-4-5-5-5-5-7-7-7-7-2-2-xxx2--2-xxxx2-2-xxx2--2-xxxx-|

Play that riff twice, then the Intro and you're done!


For the Pre-chorus, Chorus, and Bridge sections listen to the song
for strumming patterns.

Feel free to edit this for things I may have missed...I know there
are parts for Guitar 2 in the pre-chorus and the chorus that I don't
have here...But go easy on me, this was my first tab ever! 



Tablature Notation

h - hammer on 
p - pull off 
b - bend string up
/ - slide up
\ - slide down
x - palm mute
(2x) - play phrase indicated number of times





Comments


Popular People In Planes tabs & chords
If You Talk Too Much (My Head Will Explode) Chords
If You Talk Too Much My Head Will Explode Chords
Pretty Buildings Chords
Know By Now Tabs
Moth Intro 1 Tabs
Pretty Buildings Tabs
Falling By The Wayside Ukulele
If You Talk Too Much My Head Will Explode Ukulele
Light For The Deadvine Ukulele
Pretty Buildings Ukulele


Song lyrics



↑ Back to top | Tablatures and chords are parodies/interpretations of the original songs. You may use it for private study, scholarship, research or language learning purposes only
© 2014 AZChords.com Contact us | Privacy policy | DMCA | Add/correct tabs | Request tabs | Top 50 tabs