» » »

People In Planes, Moth Tabs (ver.2)

Artists:  A B C D E F G H I J K L M N O P Q R S T U V W X Y Z # 

Moth Tabs (ver.2)

People In Planes Tabs
Rating:
5/5 (2 votes)
Moth lessons Tabs too difficult? Try these video lessons and learn fast
                (Intro)
INTRO
e-----------------------------------------------------|
B---3------3------3------3------3-------3------3------|
G-----2-4----2-4----2-4----2-4----2-4-----2-4----2-4--|
D--4-4----4-4----4-4----4-4----4-4-----4-4----4-4-----|
A-2------2------2------2---------------------2------2-|
E-----------------------------3-------3---------------|
RIFF
e-----------------------------------------------------------|
B---3---------3------3------3------3-------3---3------3-----|
G-----2-4----2-4----2-4----2-4----2-4-----2-4----2-4----2-4-|
D--4-4----4-4----4-4----4-4----4-4-----4-4----4-4----4-4----|
A-2------2------2------2---------------------2------2-------|
E-----------------------------3-------3---------------------|x2
            

comments powered by Disqus
↑ Back to top | People In Planes Tabs for Moth. Lyrics for acoustic guitar and electric guitar. Tablatures and chords are parodies/interpretations of the original songs. You may use it for private study, scholarship, research or language learning purposes only