>
 >
Watercolour

Watercolour Guitar Tabs

Pendulum - Watercolour chords, tabs, tablatures, lyrics

Guitar lessons | Add/correct | Request | Top 50 tabs Artists:  A B C D E F G H I J K L M N O P Q R S T U V W X Y Z 0-9

Watercolour Guitar Tabs – Pendulum

CD, Sheet music, Poster

Do you like Watercolour? Share with your friends now
ChordsChords v2Chords v3TabsTabs v2Ukulele
Lead Guitar part (Rhythm Guitar posted separately)

0:25 Will you...				                       LAST REPEAT: -6-6-6-6-6-
e|--------6/8--|   |-----------|   |-----------------------------|
B|--6-8-9------|   |--9--9--8--|   |--9-9-8-9-9-8-6-6-4-6-4-6-8--|
G|-------------|x4 |--10-10-8--|x8 |-----------------------------|x4
D|-------------|   |-----------|   |-----------------------------|
A|-------------|   |-----------|   |-----------------------------|
E|-------------|   |-----------|   |-----------------------------|

1:08 All I believe...
e|------6-8----11-13-------11-9-8---6---6-8-8-6p4h6--------------|
B|--6-9------6-------11--6--------9---6--------------------------|
G|---------------------------------------------------------------|x2
D|---------------------------------------------------------------|
A|---------------------------------------------------------------|
E|---------------------------------------------------------------|

1:30 Take me out of here...
e|---------------------------------------------------------------|
B|--9-9-8-9-9-8-6-6-4-6-4-6-8------------------------------------|
G|---------------------------------------------------------------|x4
D|---------------------------------------------------------------|
A|---------------------------------------------------------------|
E|---------------------------------------------------------------|

1:52 Feed the fire...   [PALM MUTE]
e|---------------------------------------------------------------|
B|--9-8-9-9-8-9-9-8-9-9-8-9-11--9-8-9-9-8-9-6-4-6-9-8-6-4--------|
G|---------------------------------------------------------------|x2
D|---------------------------------------------------------------|
A|---------------------------------------------------------------|
E|---------------------------------------------------------------|

2:15		           2:26 Just stay where you are...
e|-------6--|   |---4-4---6-6---8-8--3-3---4-4---6-6---8-8-6~~~--|
B|--6-8-9---|   |--2-2-2/4-4-4/6-6--1-1-1/2-2-2/4-4-4/6-6--4~~~--|
G|----------|x4 |------------------------------------------------|
D|----------|   |------------------------------------------------|
A|----------|   |------------------------------------------------|
E|----------|   |------------------------------------------------|

2:48 Hide...
e|---------------------------------------------------------------|
B|--9-9-8-9-9-8-6-6-4-6-4-6-8--9-9-8-9-9-8-666666----------------|
G|---------------------------------------------------------------|
D|---------------------------------------------------------------|
A|---------------------------------------------------------------|
E|---------------------------------------------------------------|

e|---------------------------------------------------------------|  \
B|--9-8h9-9--9-8h9-9--11-9h11-11--9-8-9-11-----------------------|  |
G|---------------------------------------------------------------|  |
D|---------------------------------------------------------------|  |
A|---------------------------------------------------------------|  |
E|---------------------------------------------------------------|  |
									x2
e|--------------------------------------|     |------------------|  |
B|--9-8h9-9--9-8h9-9--6-4h6-6--9-8-6-4--|     |-6\---------------|  |
G|--------------------------------------|LAST |------------------|  |
D|--------------------------------------|TIME:|------------------|  |
A|--------------------------------------|     |------------------|  |
E|--------------------------------------|     |------------------|  /


| /  slide up
| \  slide down
| h  hammer-on
| ~  vibrato





Comments


Popular Pendulum tabs & chords
Granite Bass Tabs
Mutiny Bass Tabs
Crush Chords
Propane Nightmares Chords
Crush 1 Tabs
Moving Forward Intro Tabs
Self Vs Self 1 Tabs
The Tempest Acoustic Intro Tabs
Propane Nightmares Ukulele
Witchcraft Ukulele


Song lyrics



↑ Back to top | Tablatures and chords are parodies/interpretations of the original songs. You may use it for private study, scholarship, research or language learning purposes only
© 2014 AZChords.com Contact us | Privacy policy | DMCA | Add/correct tabs | Request tabs | Top 50 tabs