» » »

Slam Bass tabs (ver.1)

Artists:  A B C D E F G H I J K L M N O P Q R S T U V W X Y Z # 

Slam Bass tabs (ver.1)

Pendulum
Rating:
1/5 (2 votes)

Hard to play? Try these video lessons and learn fast.
                -------------------------------------------------------------------------------
-------------------------------------------------------------------------------


Tuning: EADG

Main Riff
I think it comes in around the 1.06 mark.
G|-------------------------------------------------------------------------|
D|-------------------------------------------------------------------------|
A|-----7-8-7----7-7----------------7-8-7----7-7----8-----------------------|
E|7-10-------10-----10-5-7----7-10-------10-----10--7----------------------|

Secondary 'bit'
G|-------------------------------------------------------------------------|
D|-------------------------------------------------------------------------|
A|-------------------------7-7----7-8-10-----------------------------------|
E|7---7-5-7--10~10~--7--10-----10------------------------------------------|

I really am not too sure on the order of it and whether or not it is all there, but what 
in the main riff and and in the secondary bit sounds good when played with the 
on fellow bassmen.
pleeeeeeeeease rate, cheers.


| /  slide up
| \  slide down
| h  hammer-on
| p  pull-off
| ~  vibrato
| +  harmonic
| x  Mute note
===============================================================================
            
Hard to play? Try these video lessons and learn fast. | Correct




comments powered by Disqus
↑ Back to top | Tablatures and chords are parodies/interpretations of the original songs. You may use it for private study, scholarship, research or language learning purposes only