» » »

The Other Side Bass tabs (ver.2)

Artists:  A B C D E F G H I J K L M N O P Q R S T U V W X Y Z # 

The Other Side Bass tabs (ver.2)

Pendulum
Rating:
0/5 (0 votes)

Tabs too difficult? Try these video lessons and learn fast.
                
Bass Tab Standard Tuning

Intro:
When Drums Come in…
G|----------------------------------------------------------------|
D|----------------------------------------------------------------|
A|----------------------------------------------------------------|
E|-1-1----1-1----1-1----1-1----1-1----1-1----1-1----1-1-----------| x2


Chorus1:
G|--------------------------------------------------------------|
D|----------------------------3-6-------------------------2-----|
A|--------------------3-6--3-6-------------------3-6--3-6-------|
E|--1-1-1-1-4-1-6-4--------------4-1-1-4-1-1-6--4---------------|

G|--------------------------------------------------------------------|
D|--------------------------------------------------------------------|
A|--4-4-4-4-4-4-4-4---------------------------------------------------|
E|------------------4-4-4-4-4-4-4-4--6-6-6-6-6-6-6-6--6-6-6-6-6-6-6-6-|
X2

Verse1:
G|--------------------------------------------------------------|
D|-------------------------------3-3----------6-5-5-------------|
A|---------3-3------------4-4-3-3---3-3-------------7-7----7-7--|
E|-1-1-4-4-----4-4-3-3-6-6--------------4-4-3-----------8-8-----|

G|--------------------------------------------------------------------|
D|-3-3-----------------------------------------------------2-2--------|
A|----3-3-------3-3-------5-----------------------------3-3---3-3-----|
E|--------4-1-4-----3-3-0---0-3-0-0-3-3-0-0-3-3-0-0-3-3---------------|


(Tap and pull-off)
G|--------------------------------------------------------------------|
D|--------------------------------------------------------------------|
A|---------8---8----7---7---------------------8---8----7---7----------|
E|8-4-8-4----8---8—---8---8--9-8-9-8-8-4-8-4----8---8—---8---8--------|


G|----------------------------------------------------------------|
D|----------------------------------------------------------------|
A|-11-8-11-8-11-8-11-8--11----11----11----11----------------------|
E|-------------------------11----11----11----11-------------------|

G|----------------------------------------------------------------|
D|---------------10--10-------------------------------------------|
A|--10-7-10-7------11—-11-----------------------------------------|
E|-------------------------12-8-12-8-12-8-12-8--------------------|




Pre-Chorus
G|----------------------------------------------------------------|
D|----------------------------------------------------------------|
A|44444444--------333333333333333344444444--------3333333333333333|
E|--------44444444------------------------44444444----------------|


Chorus2: 
G|--------------------------------------------------------------|
D|----------------------------3-6-------------------------2-----|
A|--------------------3-6--3-6-------------------3-6--3-6-------|
E|--1-1-1-1-4-1-6-4--------------4-1-1-4-1-1-6--4---------------|

G|--------------------------------------------------------------------|
D|--------------------------------------------------------------------|
A|--4-4-4-4-4-4-4-4---------------------------------------------------|
E|------------------4-4-4-4-4-4-4-4--6-6-6-6-6-6-6-6--6-6-6-6-6-6-6-6-|
X2

Verse2:
G|--------------------------------------------------------------|
D|-------------------------------3-3----------6-5-5-------------|
A|---------3-3------------4-4-3-3---3-3-------------7-7----7-7--|
E|-1-1-4-4-----4-4-3-3-6-6--------------4-4-3-----------8-8-----|

G|--------------------------------------------------------------------|
D|-3-3-----------------------------------------------------2-2--------|
A|----3-3-------3-3-------5-----------------------------3-3---3-3-----|
E|--------4-1-4-----3-3-0---0-3-0-0-3-3-0-0-3-3-0-0-3-3---------------|


(Tap and pull-off)
G|--------------------------------------------------------------------|
D|--------------------------------------------------------------------|
A|---------8---8----7---7---------------------8---8----7---7----------|
E|8-4-8-4----8---8—---8---8--9-8-9-8-8-4-8-4----8---8—---8---8--------|


G|----------------------------------------------------------------|
D|----------------------------------------------------------------|
A|-11-8-11-8-11-8-11-8--11----11----11----11----------------------|
E|-------------------------11----11----11----11-------------------|

G|----------------------------------------------------------------|
D|---------------10--10-------------------------------------------|
A|--10-7-10-7------11—-11-----------------------------------------|
E|-------------------------12-8-12-8-12-8-12-8--------------------|

Pre-Chorus:
G|----------------------------------------------------------------|
D|----------------------------------------------------------------|
A|44444444--------333333333333333344444444--------3333333333333333|
E|--------44444444------------------------44444444----------------|



Bridge:
G|----------------------------------------------------------------|
D|----------------------------------------------------------------|
A|----------------------------------------------------------------|
E|-1-1----1-1----1-1----1-1----1-1----1-1----1-1----1-1-----------| x2



Chorus3: 
G|--------------------------------------------------------------|
D|----------------------------3-6-------------------------2-----|
A|--------------------3-6--3-6-------------------3-6--3-6-------|
E|--1-1-1-1-4-1-6-4--------------4-1-1-4-1-1-6--4---------------|

G|--------------------------------------------------------------------|
D|--------------------------------------------------------------------|
A|--4-4-4-4-4-4-4-4---------------------------------------------------|
E|------------------4-4-4-4-4-4-4-4--6-6-6-6-6-6-6-6--6-6-6-6-6-6-6-6-|
X2


Guitar Solo begins, bass continues by playing through chorus again
G|--------------------------------------------------------------|
D|----------------------------3-6-------------------------2-----|
A|--------------------3-6--3-6-------------------3-6--3-6-------|
E|--1-1-1-1-4-1-6-4--------------4-1-1-4-1-1-6--4---------------|

G|--------------------------------------------------------------------|
D|--------------------------------------------------------------------|
A|--4-4-4-4-4-4-4-4---------------------------------------------------|
E|------------------4-4-4-4-4-4-4-4--6-6-6-6-6-6-6-6--6-6-6-6-6-6-6-6-|
X2

End
            
Tabs too difficult? Try these video lessons and learn fast.




comments powered by Disqus
↑ Back to top | Tablatures and chords are parodies/interpretations of the original songs. You may use it for private study, scholarship, research or language learning purposes only