>
 >
The Other Side

The Other Side Guitar Tabs

Pendulum - The Other Side chords, tabs, tablatures, lyrics

Guitar lessons | Add/correct | Request | Top 50 tabs Artists:  A B C D E F G H I J K L M N O P Q R S T U V W X Y Z 0-9

The Other Side Guitar Tabs – Pendulum

CD, Sheet music, Poster

Do you like The Other Side? Share with your friends now
Bass TabsBass Tabs v2ChordsChords v2TabsTabs v2Ukulele

Tuning: Standard
Intro:
(Faint)
e|-----------------------8-----------------------------------------------|
B|----------------9----9---11--8-----------------------------------------|
G|-10--10--9--9-----10---------------------------------------------------|
D|-----------------------------------------------------------------------|x2
A|-----------------------------------------------------------------------|
E|-----------------------------------------------------------------------|
Gets Louder:
e|-----------------8----------------------------------------8---8---8-12-15|
B|--------8-9----9--11--8----9--9--9-8------8--11-9-11-9--11--11-11--------|
G|-10--9------10----------10-------------9---------------------------------|
D|------------------------------------10-----------------------------------|
A|-------------------------------------------------------------------------|
E|-------------------------------------------------------------------------|

e|-16--15-16----18-20------------------------------------------------------|
B|-------------------------------------------------------------------------|
G|-------------------------------------------------------------------------|
D|-------------------------------------------------------------------------|
A|-------------------------------------------------------------------------|
E|-------------------------------------------------------------------------|

Drum Section: there's a faint violin type sound, but not worth tabbing.

Chrous (Come on down to the other side):                         we will..
e|--------------------------------------------------------------|
B|----------------------------6-9-------------------------6-----|
G|--------------------5-8--5-8-------------------5-8--5-8-------|
D|--3-3-3-3-6-3-3-8--6----------6-3-3-6-3-3-8--6----------------|
A|--------------------------------------------------------------|
E|--------------------------------------------------------------|
Take you from where you are, to where you belong
e|---------------------------------------------------------------------|
B|---------------------------------------------------------------------|
G|---------------------------------------------------------------------|
D|---------------------------------------------------------------------|
A|--4-4-4-4-4-4-4-4----------------------------------------------------|
E|------------------4-4-4-4-4-4-4-4--6-6-6-6-6-6-6-6--6-6-6-6-6-6-6-6--|
Repeat Chorus

Verse
e|------------------------------------------4-4-3-3-------------|
B|-------------------------------6-6---------------5-5----5-5---|
G|---------5-5------------6-6-5-5---5-5----------------5-5------|
D|-3-3-6-6-----6-6-5-5-8-8--------------6-6---------------------|
A|--------------------------------------------------------------|
E|--------------------------------------------------------------|

e|--------------------------------------------------------------------|
B|-6-6-----------------------------------------------------5-5--------|
G|----6-6-------5-5-------------------------------------5-5-----------|
D|--------6-3-6-----5-5-2-0-2-5-2-2-5-5-2-2-5-5-2-2-5-5---------------|
A|--------------------------------------------------------------------|
E|--------------------------------------------------------------------|
You, you are so precious.. (tap and pull-off)
e|8-4-8-4--13-8-13-8--12-8-12-8--9-8-9-8--8-4-8-4--13-8-13-8--12-8-12-8--|
B|-----------------------------------------------------------------------|
G|-----------------------------------------------------------------------|
D|-----------------------------------------------------------------------|
A|-----------------------------------------------------------------------|
E|-----------------------------------------------------------------------|

e|-15-8-15-8------------------------------------------------------|
B|----------------------------------------------------------------|
G|-----------13-10-13-10-13-10-13-10-13-8-13-8-13-8-13-8----------|
D|----------------------------------------------------------------|
A|----------------------------------------------------------------|
E|----------------------------------------------------------------|

e|-------------------------12-8-12-8-12-8-12-8--------------------|
B|---------------13-9-13-9----------------------------------------|
G|--12-9-12-9-----------------------------------------------------|
D|----------------------------------------------------------------|
A|----------------------------------------------------------------|
E|----------------------------------------------------------------|

Pre-Chrous
e|----------------------------------------------------------------|
B|----------------------------------------------------------------|
G|--6---------------------5----------5----------------------------|
D|--6----------6----------5----------5----------------------------|x2
A|--4----------6----------3----------3----------------------------|
E|-------------4--------------------------------------------------|

Chrous (Come on down to the other side):                 we will..
e|--------------------------------------------------------------|
B|----------------------------6-9-------------------------6-----|
G|--------------------5-8--5-8-------------------5-8--5-8-------|
D|--3-3-3-3-6-3-3-8--6----------6-3-3-6-3-3-8--6----------------|
A|--------------------------------------------------------------|
E|--------------------------------------------------------------|
Take you from where you are, to where you belong
e|---------------------------------------------------------------------|
B|---------------------------------------------------------------------|
G|---------------------------------------------------------------------|
D|---------------------------------------------------------------------|
A|--4-4-4-4-4-4-4-4----------------------------------------------------|
E|------------------4-4-4-4-4-4-4-4--6-6-6-6-6-6-6-6--6-6-6-6-6-6-6-6--|
Repeat Chorus

Verse
e|------------------------------------------4-4-3-3-------------|
B|-------------------------------6-6---------------5-5----5-5---|
G|---------5-5------------6-6-5-5---5-5----------------5-5------|
D|-3-3-6-6-----6-6-5-5-8-8--------------6-6---------------------|
A|--------------------------------------------------------------|
E|--------------------------------------------------------------|

e|--------------------------------------------------------------------|
B|-6-6-----------------------------------------------------5-5--------|
G|----6-6-------5-5-------------------------------------5-5-----------|
D|--------6-3-6-----5-5-2-0-2-5-2-2-5-5-2-2-5-5-2-2-5-5---------------|
A|--------------------------------------------------------------------|
E|--------------------------------------------------------------------|
You, you are so precious.. (tap and pull-off)
e|8-4-8-4--13-8-13-8--12-8-12-8--9-8-9-8--8-4-8-4--13-8-13-8--12-8-12-8--|
B|-----------------------------------------------------------------------|
G|-----------------------------------------------------------------------|
D|-----------------------------------------------------------------------|
A|-----------------------------------------------------------------------|
E|-----------------------------------------------------------------------|

e|-15-8-15-8------------------------------------------------------|
B|----------------------------------------------------------------|
G|-----------13-10-13-10-13-10-13-10-13-8-13-8-13-8-13-8----------|
D|----------------------------------------------------------------|
A|----------------------------------------------------------------|
E|----------------------------------------------------------------|

e|-------------------------12-8-12-8-12-8-12-8--------------------|
B|---------------13-9-13-9----------------------------------------|
G|--12-9-12-9-----------------------------------------------------|
D|----------------------------------------------------------------|
A|----------------------------------------------------------------|
E|----------------------------------------------------------------|
Pre-Chrous
e|----------------------------------------------------------------|
B|----------------------------------------------------------------|
G|--6---------------------5----------5----------------------------|
D|--6----------6----------5----------5----------------------------|x2
A|--4----------6----------3----------3----------------------------|
E|-------------4--------------------------------------------------|

Interlude                                                  coming down
e|-------------------------------------------------------------------------|
B|-------------------------------------------------------------------------|
G|---5-----5\3---------------------------------------------------------5---|
D|---------------------------------------------------------------------5---|
A|-------------------------------------------------------------------------|
E|-------------------------------------------------------------------------|

Chrous (down to the other side):                         we will..
e|--------------------------------------------------------------|
B|----------------------------6-9-------------------------6-----|
G|--------------------5-8--5-8-------------------5-8--5-8-------|
D|--3-3-3-3-6-3-3-8--6----------6-3-3-6-3-3-8--6----------------|
A|--------------------------------------------------------------|
E|--------------------------------------------------------------|
Take you from where you are, to where you belong
e|---------------------------------------------------------------------|
B|---------------------------------------------------------------------|
G|---------------------------------------------------------------------|
D|---------------------------------------------------------------------|
A|--4-4-4-4-4-4-4-4----------------------------------------------------|
E|------------------4-4-4-4-4-4-4-4--6-6-6-6-6-6-6-6--6-6-6-6-6-6-6-6--|
Repeat

Solo(ish) over the top of the chorus:                      on  down
e|------------------------------------------------------------------------|
B|---4--4~--4-----4--6~4---9-8--66-44----4---6------4------4~~~~4/6-------|
G|-5---5---5-----3-5-----------------3-5--------33-5----3-5---------------|
D|------------------------------------------------------------------------|
A|------------------------------------------------------------------------|
E|------------------------------------------------------------------------|

e|------------------------------------------------------------------------|
B|----4-4--4--------4-4/6~\4-----4-4/6~\4--4----4-4/6--4------------------|
G|-3-5-----------3-5----------3-5-------------3-5-----5-------------------|
D|------------------------------------------------------------------------|
A|------------------------------------------------------------------------|
E|------------------------------------------------------------------------|

e|-------------------------------------------------------------------------|
B|-9--8---------------6-------8-4----------------6-3-----------------------|
G|-------------------------------------------------------------------------|
D|--------------------------------------------------------8--6--3----------|
A|--------------------------------------------------------8--6--3----------|
E|--------------------------------------------------------6--4--1----------|

Well - I'm pretty happy that it's spot on, maybe the odd typo, and the solo's a bit 
to catch, but any comments/corrections welcome.

Please Rate.

| /  slide up
| \  slide down
| h  hammer-on
| p  pull-off
| ~  vibrato
| +  harmonic
| x  Mute note





Comments


Popular Pendulum tabs & chords
Blood Sugar Bass Tabs
Hold Your Colour Bass Tabs
The Island Part 1 Bass Tabs
The Tempest Bass Tabs
Im Not Alone Tabs
Moving Forward Intro Tabs
Witchcraft Tabs
Witchcraft 2 Tabs
Witchcraft 4 Tabs
The Other Side Ukulele


Song lyrics



↑ Back to top | Tablatures and chords are parodies/interpretations of the original songs. You may use it for private study, scholarship, research or language learning purposes only
© 2014 AZChords.com Contact us | Privacy policy | DMCA | Add/correct tabs | Request tabs | Top 50 tabs