» » »

Pendulum, Self Vs Self Tabs (ver.2)

Artists:  A B C D E F G H I J K L M N O P Q R S T U V W X Y Z # 

Self Vs Self Tabs (ver.2)

Pendulum Tabs
 Rating:
4.6/5 (9 votes)
Self Vs Self lessons Tabs too difficult? Try these video lessons and learn fast
1
                So as you may have seen, there aren't many Pendulum Tabs around, so I decided to 
tab this, from their new album Immersion. Have fun :).

Tuning: Standard
h = hammer on
p = pull off
x = Muted note
> = hold note



Intro (0:01)  [x4]
E||--------------------------------------------------------------------||
B||--------------------------------------------------------------------||
G||-----------10h11-------------10h11----8b-8-x--10h11--8b-8-x-10h11---||
D||----8-8-x-----------8-8-8-x-----------8b-8-x---------8b-8-x---------||
A||----8-8-x-----------8-8-8-x-----------6b-6-x---------6b-6-x---------||
E||----6-6-x-----------6-6-6-x-----------------------------------------||

Bridge (0:24)  [x8]
E||--------------------------------------------------------------------||
B||--------------------------------------------------------------------||
G||--------------------------------------------------------------------||
D||----8-x-x----8-x-x----8-x-x----x-8-x-x-8-x-8------------------------||
A||----8-x-x----8-x-x----8-x-x----x-8-x-x-8-x-8------------------------||
E||----6-x-x----6-x-x----6-x-x----x-6-x-x-6-x-6------------------------||

Pre-Verse (0:46)  [x4]
E||-----------------------------------------------------------------------||
B||-----------------------------------------------------------------------||
G||-------------------------------------8-8-x-------------8-8-8-----------||
D||----8-8--15-x-13----8-8--15p13h15----8-8-x--11-x-10----8-8-8--10-x-11b-||
A||----8-8-------------8-8--------------6-6-x-------------6-6-6-----------||
E||----6-6-------------6-6------------------------------------------------||

Verse (1:08)  [x4]
E||--------------------------------------------------------------------||
B||--------------------------------------------------------------------||
G||--------------------------------------------------------------------||
D||------8---8----8---8----6------8---8--------------------------------||
A||----8-8-8-8----8-8-8----6----8-8-8-8--------------------------------||
E||----6---6--------6-----------6---6-----6-4-6-8-6-4------------------||

Verse Continued (1:30)  [x4]
E||--------------------------------------------------------------------||
B||--------------------------------------------------------------------||
G||--------------------------------------------------------------------||
D||------8---8-------------------------8---8-8-8-8-8-------------------||
A||----8-8-8-8----8-8-8-8-8-8-8-8----8-8-8-8-8-8-8-8-------------------||
E||----6---6------6-6-6-6-6-6-6-6----6---6------------6-4-6-8-6-4------||

Pre-Chorus (1:52)
E||-------------------------------||
B||-------------------------------||
G||-------------------------------||
D||----11-11-11-11-11-11-11-11----||
A||----11-11-11-11-11-11-11-11----||
E||----9--9--9--9--9--9--9--9-----||

Chorus (1:57)  [x4]
E||------------------------------------------------------------------------------||
B||------------------------------------------------------------------------------||
G||----------------------------------------8>>-x-x-8-x-x----11-11-x-x-11-x-x-x---||
D||----8>>-x-x-8-x-x----8-8-x-x-8-x-x-x----8>>-x-x-8-x-x----11-11-x-x-11-x-x-x---||
A||----8>>-x-x-8-x-x----8-8-x-x-8-x-x-x----6>>-x-x-6-x-x----9--9--x-x-9--x-x-x---||
E||----6>>-x-x-6-x-x----6-6-x-x-6-x-x-x------------------------------------------||

Pre-Verse (2:20)  [x4]
E||-----------------------------------------------------------------------||
B||-----------------------------------------------------------------------||
G||-------------------------------------8-8-x-------------8-8-8-----------||
D||----8-8--15-x-13----8-8--15p13h15----8-8-x--11-x-10----8-8-8--10-x-11b-||
A||----8-8-------------8-8--------------6-6-x-------------6-6-6-----------||
E||----6-6-------------6-6------------------------------------------------||

Verse (2:42)  [x4]
E||--------------------------------------------------------------------||
B||--------------------------------------------------------------------||
G||--------------------------------------------------------------------||
D||------8---8----8---8----6------8---8--------------------------------||
A||----8-8-8-8----8-8-8----6----8-8-8-8--------------------------------||
E||----6---6--------6-----------6---6-----6-4-6-8-6-4------------------||

Verse Continued (3:04)  x4
E||--------------------------------------------------------------------||
B||--------------------------------------------------------------------||
G||--------------------------------------------------------------------||
D||------8---8-------------------------8---8-8-8-8-8-------------------||
A||----8-8-8-8----8-8-8-8-8-8-8-8----8-8-8-8-8-8-8-8-------------------||
E||----6---6------6-6-6-6-6-6-6-6----6---6------------6-4-6-8-6-4------||
            
Submit corrections

comments powered by Disqus
↑ Back to top | Pendulum Tabs for Self Vs Self. Lyrics for acoustic guitar and electric guitar. 1 Tablatures and chords are parodies/interpretations of the original songs. You may use it for private study, scholarship, research or language learning purposes only