» » »

Propane Nightmares Bass tabs (ver.2)

Artists:  A B C D E F G H I J K L M N O P Q R S T U V W X Y Z # 

Propane Nightmares Bass tabs (ver.2)

Pendulum
Rating:
4/5 (1 vote)

Hard to play? Try these video lessons and learn fast.
                Propane nightmares bass tab
By Will9444555
E-A-D-G-B-E
This version is adapted so the chorus can be played fingered rather
than with a pick as Gareth plays it but if you want look cool I will
put the actual method he uses at the end!

Intro x 2


Bridge
|-----------------------------------|--------------------------------|
|-----------------------------------|--------------------------------| x2
|---66666666--------55555555--------|66666666--------5555555555555555|
|-----------66666666--------33333333|--------66666666----------------|


Chorus
|------------------------------------|
|---------------32-------------------| x2
|-----01------0-------01----1---3----|
|--3-------3--------3-----3---3---3--|


Verse
|-------------------------------------------------------------------------------------|
|-------------------------------------------------------------------------------------|
|---------------------------------------------1111111133333333------------------------|
|--3333333333333333333333333333333333333333333----------------------------------------|



|-------------------------------------------------------------------------------------|
|-------------------------------------------------------------------------------------|
|---------------------------------------------1111111133333333------------------------|
|--3333333333333333333333333333333333333333333----------------------------------------|


Chorus
|------------------------------------|
|---------------32-------------------| x2
|-----01------0-------01----1---3----|
|--3-------3--------3-----3---3---3--|



Verse
|-------------------------------------------------------------------------------------|
|-------------------------------------------------------------------------------------|
|---------------------------------------------1111111133333333------------------------|
|--3333333333333333333333333333333333333333333----------------------------------------|



|-------------------------------------------------------------------------------------|
|-------------------------------------------------------------------------------------|
|---------------------------------------------1111111133333333------------------------|
|--3333333333333333333333333333333333333333333----------------------------------------|


Chorus
|------------------------------------|
|---------------32-------------------| x2
|-----01------0-------01----1---3----|
|--3-------3--------3-----3---3---3--|



Break down - no bass
Guitar 'In a trail of fire' (This is only in the brixton live version but it 
sounds cool so I put it in)


Bridge
|-----------------------------------|--------------------------------|
|-----------------------------------|--------------------------------| x2
|---66666666--------55555555--------|66666666--------5555555555555555|
|-----------66666666--------33333333|--------66666666----------------|



2nd Bridge


|------------|
|------------| x4
|------------|
|666655553333|

Last time:
|------------|
|------------|
|--------5555|
|66665555----|


THEN!
Chorus x4 - recorded version
       x8 - live version
 *NOTE Ending
(Just because it sounds cool, if you do not like it just on the G (Fret 3 on E string)
and play the D (Fret 5 on A String)

|------------------------------------|---------------|
|---------------32-------------------|---------------|
|-----01------0-------01----1---3--5-|---------------|
|--3-------3--------3-----3---3------|3~~~~~~~~~~~~~~|


Oh yeah and I nearly forgot here are all the different ways of playing the chorus!

1st way you can play the chorus:

|------------------------------------|
|---------------32-------------------|
|------------------------------------|
|--3--56---3--5-----3-56--3--5-3-8-3-|


|------------------------------------|
|------------------------------------|
|---------------87-------------------|
|--3--56---3--5-----3-56--3--5-3-8-3-|

At Lastly the Last Fret 8 on E can be 3 on A (Just incase it interests you)
            
Hard to play? Try these video lessons and learn fast. | Correct




comments powered by Disqus
↑ Back to top | Tablatures and chords are parodies/interpretations of the original songs. You may use it for private study, scholarship, research or language learning purposes only