» » »

Pearl Jam, The Fixer Tabs (ver.2)

Artists:  A B C D E F G H I J K L M N O P Q R S T U V W X Y Z # 

The Fixer Tabs (ver.2)

Pearl Jam Tabs
 Rating:
4/5 (4 votes)
The Fixer lessons Tabs too difficult? Try these video lessons and learn fast
1
                -------------------------------------------------------------------------------
                             THE FIXER - Pearl Jam
-------------------------------------------------------------------------------

Tuning: Standard (EADGBE)


0:00 
I play this riff using mainly upstrokes...

e|---------------------------------------------------------------------------|
B|-------------------12h13-12-----9h10-9-------------------------------------|
G|--8-----11----x-x--12----12--x--9----9-------------------------------------|
D|--9-----12----x-x--12----12--x--9----9-------------------------------------|
A|--9--x--12----x-x--10----10--x--7----7-------------------------------------|
E|--7--x--10-----------------------------------------------------------------|


0:14

e|---------------------------------------------------------------------------|
B|---------------------------------------------------------------------------|
G|---------------------------------------------------------------------------|
D|--------------------------7---7--------------------------------------------|
A|----5---5---------2-2---5---5-------9---0----------------------------------|
E|--3---3---3---3p0---------------5/7---7------------------------------------|

e|-(0)--(0)------------------------------------------------------------------|
B|--0----0-----3-------------------------------------------------------------|
G|--2----2-----2-------------------------------------------------------------|
D|--0----4-----0-------------------------------------------------------------|
A|--x----x----(0)------------------------------------------------------------|
E|--3----0-------------------------------------------------------------------|


1:27

e|-------------------(9)-----(9)--(5)----------------------------------------|
B|-------------------(9)--8--(9)--(5)----------------------------------------|
G|------7-----7-------9---8---7----6-----------------------------------------|
D|--7h9---7h9---7h9--10---8---9----7-----------------------------------------|
A|-------------------10---6---9----7-----------------------------------------|
E|--------------------8-------7----5-----------------------------------------|



There's a bit of layering from an additional guitar in the verses and the breakdown,
but I didn't feel it was necessary to include them. 


| /  slide up
| \  slide down
| h  hammer-on
| p  pull-off
| ~  vibrato
| +  harmonic
| x  Mute note
===============================================================================
            
Submit corrections

comments powered by Disqus
↑ Back to top | Pearl Jam Tabs for The Fixer. Lyrics for acoustic guitar and electric guitar. 1 Tablatures and chords are parodies/interpretations of the original songs. You may use it for private study, scholarship, research or language learning purposes only