>
 >
The Fixer

The Fixer Bass Tabs

Pearl Jam - The Fixer chords, tabs, tablatures, lyrics

Guitar lessons | Add/correct | Request | Top 50 tabs Artists:  A B C D E F G H I J K L M N O P Q R S T U V W X Y Z 0-9

The Fixer Bass Tabs – Pearl Jam

CD, Sheet music, Poster

Do you like The Fixer? Share with your friends now
Bass TabsChordsChords v2Drum TabsTabsTabs v2
The Fixer - Pearl Jam
Bass Tab
Drop D

Intro

G|-------------------------|-----------------|-------------------------|-----------------|
D|-----------------------5-|-5-5---2-2-2-----|-----------------------5-|-5-5---2-2-2-----|
A|-------------------------|---------------2-|-------5-----------------|---------------2-|
D|-------------------------|-----------------|-------0-----------------|-----------------|
   1 + 2 + 3 + 4 + 5 + 6 +   1 + 2 + 3 + 4 +   1 + 2 + 3 + 4 + 5 + 6 +   1 + 2 + 3 + 4 +

G|-------------------------|-----------------|-------------------------||
D|-----------------------5-|-5-5---2-2-2-----|-------------------------||
A|-------5-----------------|---------------2-|-------5-----------------||
D|-------0-----------------|-----------------|-------0-----------------||
   1 + 2 + 3 + 4 + 5 + 6 +   1 + 2 + 3 + 4 +   1 + 2 + 3 + 4 + 5 + 6 +  

Verse

G|-------------------------|-------------------------|-------------------------|
D|-------------------2-2---|-------------------------|-------------------------|
A|-------------------------|-5-5---5-5-5---2-2-2-2-0-|-------------------------|
D|-5-5---5-5-5---5-2-------|-------------------------|-5-5---5-5-5---5-2-2-----|
   1 + 2 + 3 + 4 + 5 + 6 +   1 + 2 + 3 + 4 + 5 + 6 +   1 + 2 + 3 + 4 + 5 + 6 + 

G|-------------------------|-------------------------|-------------------------|
D|-------------------------|-------------------2-2---|-------------------------|
A|-5-5---5-5-5---2-2-2-2-0-|-------------------------|-5-5---5-5-5---2-2-2-2-0-|
D|-------------------------|-5-5---5-5-5---5-2-------|-------------------------|
   1 + 2 + 3 + 4 + 5 + 6 +   1 + 2 + 3 + 4 + 5 + 6 +   1 + 2 + 3 + 4 + 5 + 6 + 

G|-------------------------|-------------------------||
D|-------------------------|-------------------------||
A|-------------------------|-5-5---5-5-5---2-2-2-2-0-||
D|-5-5---5-5-5---5-2-2-----|-------------------------||
   1 + 2 + 3 + 4 + 5 + 6 +   1 + 2 + 3 + 4 + 5 + 6 +   

Chorus

G|-----------------|-----------------|-----------------|-----------------|
D|-----------------|-----------------|-----------------|-----------------|
A|-----------------|-----------------|-5-5-5-5-5-5-5-4-|-2-2-2-2-2-2-2-0-|
D|-5-5-5-5-5-5-5-4-|-2-2-2-2-2-2-2-2-|-----------------|-----------------|
   1 + 2 + 3 + 4 +   1 + 2 + 3 + 4 +   1 + 2 + 3 + 4 +   1 + 2 + 3 + 4 +

G|-----------------|-----------------|-----------------|-----------------||
D|-----------------|-----------------|-----------------|-----------------||
A|-----------------|-----------------|-5-5-5-5-5-4-5-4-|-2-2-2-2-2-2-2-0-||
D|-5-5-5-5-5-4-5-4-|-2-2-2-2-2-2-2-2-|-----------------|-----------------||
   1 + 2 + 3 + 4 +   1 + 2 + 3 + 4 +   1 + 2 + 3 + 4 +   1 + 2 + 3 + 4 +

Verse

G|-------------------------|-------------------------|-------------------------|
D|-------------------2-2---|-------------------------|-------------------------|
A|-------------------------|-5-5---5-5-5---2-2-2-2-0-|-------------------------|
D|-5-5---5-5-5---5-2-------|-------------------------|-5-5---5-5-5---5-2-2-----|
   1 + 2 + 3 + 4 + 5 + 6 +   1 + 2 + 3 + 4 + 5 + 6 +   1 + 2 + 3 + 4 + 5 + 6 + 

G|-------------------------|-------------------------|-------------------------|
D|-------------------------|-------------------------|-------------------------|
A|-5-5---5-5-5---2-2-2-2-0-|-------------------------|-5-5---5-5-5---2-2-2-2-0-|
D|-------------------------|-5-5---5-5-5---5-2-2-----|-------------------------|
   1 + 2 + 3 + 4 + 5 + 6 +   1 + 2 + 3 + 4 + 5 + 6 +   1 + 2 + 3 + 4 + 5 + 6 + 

G|-------------------------|-------------------------||
D|-------------------2-2---|-------------------------||
A|-------------------------|-5-5---5-5-5---2-2-2-2-0-||
D|-5-5---5-5-5---5-2-------|-------------------------||
   1 + 2 + 3 + 4 + 5 + 6 +   1 + 2 + 3 + 4 + 5 + 6 +   

Chorus

G|-----------------|-----------------|-----------------|-----------------|
D|-----------------|-----------------|-----------------|-----------------|
A|-----------------|-----------------|-5---5-5-5-4-5-4-|-2---2-2-2-2-2-2-|
D|-5-5-5-5-5-4-5-4-|-2---2-2-2-2-2-2-|-----------------|-----------------|
   1 + 2 + 3 + 4 +   1 + 2 + 3 + 4 +   1 + 2 + 3 + 4 +   1 + 2 + 3 + 4 +

G|-----------------|-----------------|-----------------|-----------------||
D|-----------------|-----------------|-----------------|-----------------||
A|-----------------|-----------------|-5-5-5-5-5-4-5-4-|-2-2-2-2-2-2-2-0-||
D|-5---5-5-5-4-5-4-|-2---2-2-2-2-2-2-|-----------------|-----------------||
   1 + 2 + 3 + 4 +   1 + 2 + 3 + 4 +   1 + 2 + 3 + 4 +   1 + 2 + 3 + 4 +

Verse

G|-------------------------|-------------------------|-------------------------|
D|-------------------2-2---|-------------------------|-------------------------|
A|-------------------------|-5-5---5-5-5---2-2-2-2-0-|-------------------------|
D|-5-5---5-5-5---5-2-------|-------------------------|-5-5---5-5-5---5-2-2-----|
   1 + 2 + 3 + 4 + 5 + 6 +   1 + 2 + 3 + 4 + 5 + 6 +   1 + 2 + 3 + 4 + 5 + 6 + 

G|-------------------------|-------------------------||
D|-------------------------|-------------------------||
A|-5-5---5-5-5-5-2-2-------|-------------------------||
D|-------------------------|-------------------------||
   1 + 2 + 3 + 4 + 5 + 6 +   1 + 2 + 3 + 4 + 5 + 6 +

Bridge

G|-----------------|-----------------|-----------------|-----------------|
D|-----------------|-----------------|-----------------|-----------------|
A|-3---3---3---3-3-|-3---3-3-3-3-3--/|/6---6---6-5-6-8-|---6---5---6---\\|
D|-----------5-----|-----------------|-----------------|-----------------|
   1 + 2 + 3 + 4 +   1 + 2 + 3 + 4 +   1 + 2 + 3 + 4 +   1 + 2 + 3 + 4 +

G|-----------------|-----------------|-----------------|-----------------|
D|-------//9-9-9---|-7-7-7-7---------|-7---7---7-7-7---|-7-7-7---7-7-7-\\|
A|\2---2-----------|---------9---9---|-----------------|-----------------|
D|-----------------|-----------------|-----------------|-----------------|
   1 + 2 + 3 + 4 +   1 + 2 + 3 + 4 +   1 + 2 + 3 + 4 +   1 + 2 + 3 + 4 +

G|-----------------|-----------------|-----------------|-----------------|
D|-----------------|-----------------|-----------------|-----------------|
A|-3-------3---3-3-|-3-------3-3-3--/|/6---6---6-5-6-8-|---6---5---6---\\|
D|-----------5-----|-----------------|-----------------|-----------------|
   1 + 2 + 3 + 4 +   1 + 2 + 3 + 4 +   1 + 2 + 3 + 4 +   1 + 2 + 3 + 4 +

G|-----------------|-----------------|-----------------|-----------------||
D|-------//9-9-9---|-7-7-7-7---------|-7-7-7-7-7-7-7-7-|-7-7-7-7-7-7-7-\\||
A|\2---2-----------|---------9---9---|-----------------|-----------------||
D|-----------------|-----------------|-----------------|-----------------||
   1 + 2 + 3 + 4 +   1 + 2 + 3 + 4 +   1 + 2 + 3 + 4 +   1 + 2 + 3 + 4 +

Interlude

G|-------------------------|-----------------|-------------------------|-----------------|
D|-----------------------5-|-5-5---2-2-2-----|-----------------------5-|-5-5---2-2-2-----|
A|-2-----------------------|---------------2-|-------5-----------------|---------------2-|
D|-------------------------|-----------------|-------0-----------------|-----------------|
   1 + 2 + 3 + 4 + 5 + 6 +   1 + 2 + 3 + 4 +   1 + 2 + 3 + 4 + 5 + 6 +   1 + 2 + 3 + 4 +

G|-------------------------|-----------------|-----------------|-----------------||
D|-----------------------5-|-5-5---2-2-2-----|-----------------|-----------------||
A|-------5-----------------|---------------2-|-------5---------|-----------------||
D|-------0-----------------|-----------------|-------0---------|-----------------||
   1 + 2 + 3 + 4 + 5 + 6 +   1 + 2 + 3 + 4 +   1 + 2 + 3 + 4 +   1 + 2 + 3 + 4 + 


Chorus

G|-----------------|-----------------|-----------------|-----------------|
D|-----------------|-----------------|-----------------|-----------------|
A|-----------------|-----------------|-5---5-5-5-4-5-4-|-2---2-2-2-2-2-0-|
D|-5-5-5-5-5-4-5-4-|-2---2-2-2-2-2-2-|-----------------|-----------------|
   1 + 2 + 3 + 4 +   1 + 2 + 3 + 4 +   1 + 2 + 3 + 4 +   1 + 2 + 3 + 4 +

G|-----------------|-----------------|-----------------|-----------------|
D|-----------------|-----------------|-----------------|-----------------|
A|-----------------|-----------------|-5---5-5-5-4-5-4-|-2-2-2-0-2-0-2-0-|
D|-5---5-5-5-4-5-4-|-2---2-2-2-2-2-2-|-----------------|-----------------|
   1 + 2 + 3 + 4 +   1 + 2 + 3 + 4 +   1 + 2 + 3 + 4 +   1 + 2 + 3 + 4 +

G|-----------------|-----------------|-----------------|-----------------|
D|-----------------|-----------------|-----------------|-----------------|
A|-----------------|-----------------|-5---5-5-5-7-5-4-|-2-2-2-2-2-2-2-0-|
D|-5---5-5-5-4-5-4-|-2---2-2-2-2-2-2-|-----------------|-----------------|
   1 + 2 + 3 + 4 +   1 + 2 + 3 + 4 +   1 + 2 + 3 + 4 +   1 + 2 + 3 + 4 +

G|-----------------|-----------------|-----------------|-----------------|
D|-----------------|-----------------|-----------------|---------9-9-9---|
A|-----------------|-----------------|-5-5-5-5-5-5-5-0-|-2-2-2/9---------|
D|-5---5-5-5-4-5-4-|-2---2-2-2-2-2-2-|-----------------|-----------------|
   1 + 2 + 3 + 4 +   1 + 2 + 3 + 4 +   1 + 2 + 3 + 4 +   1 + 2 + 3 + 4 +

G|-----------------|-----------------|-----------------|-----------------|
D|-----------------|-----------------|-----------------|-----------------|
A|-----------------|-----------------|-5-5-5-5-5-5-5-4-|-2-2-2-0-2-0-2-0-|
D|-5---5-5-5-4-5-4-|-2---2-2-2-2-2-2-|-----------------|-----------------|
   1 + 2 + 3 + 4 +   1 + 2 + 3 + 4 +   1 + 2 + 3 + 4 +   1 + 2 + 3 + 4 +

                                       Start to fade out.................
G|-----------------|-----------------|-----------------|-----------------|
D|-----------------|-----------------|-----------------|-----------------|
A|-----------------|-----------------|-5-5-5-5-5-7-5-4-|-2-2-2-2-2-2-2-0-|
D|-5-5-5-5-5-4-5-4-|-2-2-2---2-2-2-2-|-----------------|-----------------|
   1 + 2 + 3 + 4 +   1 + 2 + 3 + 4 +   1 + 2 + 3 + 4 +   1 + 2 + 3 + 4 +

G|-----------------|-----------------|-----------------|-----------------|
D|-----------------|-----------------|-----------------|-----------------|
A|-----------------|-----------------|-5-5-5-5-5-4-5-4-|-2-2-2-2-2-2-2-0-|
D|-5-5-5-5-5-4-5-4-|-2-2-2-2-2-2-2-2-|-----------------|-----------------|
   1 + 2 + 3 + 4 +   1 + 2 + 3 + 4 +   1 + 2 + 3 + 4 +   1 + 2 + 3 + 4 +

G|-----------------|-----------------||
D|-----------------|-----------------||
A|-----------------|-----------------||
D|-5-5-5-5-5-4-5-4-|-2-2-2-2-2-2-2-2-||
   1 + 2 + 3 + 4 +   1 + 2 + 3 + 4 +  





Comments


Popular Pearl Jam tabs & chords
Blood Bass Tabs
Elderly Woman Behind The Counter 2 Bass Tabs
Elderly Woman Behind The Counter In A Sm Bass Tabs
Given To Fly Bass Tabs
All Or None Chords
Lyrics Book Chords
Rearviewmirror Chords
Brain Of Jfk 1 Tabs
Chop It Down Tabs
Goat Tabs


Song lyrics



↑ Back to top | Tablatures and chords are parodies/interpretations of the original songs. You may use it for private study, scholarship, research or language learning purposes only
© 2014 AZChords.com Contact us | Privacy policy | DMCA | Add/correct tabs | Request tabs | Top 50 tabs